Song name
# A B C D E F G H I J K L M N O P Q R S T U V W X Y Z

Hives - Take Back The Toys tab

Verse:

You always lift your pointer finger each beat, listen for it and you'll hear it.

D             C#            B
Take back the toys that you gave to me

        B            A            G
I never knew what to do with them anyway

        G           F#           B
I never knew how to break up the box
              G           F#           B
I'll stick to pebbles and boulders and rocks

e---------------------------------|
B---------------------------------|
G---------------------------------|
D-12-12-12--11-11-11--9-9-9-9-9-9-|
A-12-12-12--11-11-11--9-9-9-9-9-9-|
E-10-10-0---9--9--0---7-7-0-7-7-0-|

e---------------------------|
B---------------------------|
G---------------------------|
D-9-9-9--7-7-7--5-5-5-5-5-5-|
A-9-9-9--7-7-7--5-5-5-5-5-5-|
E-7-7-0--5-5-0--3-3-0-3-3-0-|

e---------------------------|
B---------------------------|
G---------------------------|
D-5-5-5--4-4-4--9-9-9-9-9-9-|
A-5-5-5--4-4-4--9-9-9-9-9-9-|
E-3-3-0--2-2-0--7-7-0-7-7-0-|

e---------------------------|
B---------------------------|
G---------------------------|
D-5-5-5--4-4-4--9-9-9-9-9-9-|
A-5-5-5--4-4-4--9-9-9-9-9-9-|
E-3-3-0--2-2-0--7-7-0-7-7-0-|

-------------------------------------------------------------

Chorus:

Don't lift your pointer in this part!

A                            G                           F#
Take back the toys or I'll destroy 'em do you hear what I say?!

e----------|
B----------|
G----------|
D-7--5--4--|
A-7--5--4--|
E-5--3--2--|
Tap to rate this tab
# A B C D E F G H I J K L M N O P Q R S T U V W X Y Z