Song name
# A B C D E F G H I J K L M N O P Q R S T U V W X Y Z

Hives - Aka Idiot tab

Intro/Main Riff:
e|-----------------0-------------|
B|-------------------0---0-------|
G|-7-7-7-9\----3/4---------0-----|
D|-7-7-7-9\--------------------2-|
A|-5-5-5-7\----------------------|
E|-------------------------------|

e|-------------------------------|
B|-------------------------------|
G|-7-7-7-9\----------------------|
D|-7-7-7-9\----------------------|
A|-5-5-5-7\----------------------|
E|-------------3---2-1---0-------|
             |-------------| (The last time only bass plays this) 



Verse:
e|--------------------------------------|
B|--------------------------------------|
G|-7-7-7-9---9-9-9-9-9-9-9-9-9-9--------|
D|-7-7-7-9---9-9-9-9-9-9-9-9-9-9--------|
A|-5-5-5-7---7-7-7-7-7-7-7-7-7-7--------|
E|--------------------------------------|

e|------------------------------------------|
B|------------------------------------------|
G|-7-7-7-12--12-12-12-12-12-12-12-12-12-12--|
D|-7-7-7-12--12-12-12-12-12-12-12-12-12-12--|
A|-5-5-5-10--10-10-10-10-10-10-10-10-10-10--|
E|------------------------------------------|

e|--------------------------------------|
B|--------------------------------------|
G|-7-7-7-5---5-5-5-5-5-5-5-5-5-5--------|
D|-7-7-7-5---5-5-5-5-5-5-5-5-5-5--------|
A|-5-5-5-3---3-3-3-3-3-3-3-3-3-3--------|
E|--------------------------------------|

e|---------------------|
B|---------------------|
G|---------5-5-5-4-----|
D|-5---5---5-5-5-4-----|
A|-5---5---3-3-3-2-----|
E|-3---3---------------|



Chorus:
e|------------------------------------|
B|------------------------------------|
G|------------------7777777777777777--|
D|-2222222222222222-7777777777777777--|
A|-2222222222222222-5555555555555555--|
E|-0000000000000000-------------------|

e|------------------------------------|
B|------------------------------------|
G|------------------55555555-44444444-|
D|-5555555555555555-55555555-44444444-|
A|-5555555555555555-33333333-22222222-|
E|-3333333333333333-------------------|

e|------------------------------------|
B|------------------------------------|
G|------------------7777777777777777--|
D|-2222222222222222-7777777777777777--|
A|-2222222222222222-5555555555555555--|
E|-0000000000000000-------------------|

e|------------------------------------|
B|------------------------------------|
G|------------------------------------|
D|-7777777777777777-55555555-7--------|
A|-7777777777777777-55555555-7--------|
E|-5555555555555555-33333333-5--------|

e|-------------|
B|-------------|
G|-------------|
D|-22222222----|
A|-22222222----|
E|-00000000----|



[MAIN RIFF]

[VERSE]

[CHORUS]



Verse 3:
e|----------|
B|----------|
G|-7-7-7-9/-|
D|-7-7-7-9/-|
A|-5-5-5-7/-|
E|----------|

[Just Bass]

e|---------------------------|
B|---------------------------|
G|---------5-5-5-4-----------|
D|-5---5---5-5-5-4---2-------|
A|-5---5---3-3-3-2---2-------|
E|-3---3-------------0-------|



[CHORUS]



End on:
e|----------|
B|----------|
G|-7-7-7-9/-|
D|-7-7-7-9/-|
A|-5-5-5-7/-|
E|----------|
Tap to rate this tab
 
# A B C D E F G H I J K L M N O P Q R S T U V W X Y Z