Song name
# A B C D E F G H I J K L M N O P Q R S T U V W X Y Z

Hives - Without The Money tab

Without The Money - The Hives - Lex Hives - Done by ear so.... yeah
And I know it's mostly organ, but the opening riff is awesome

Intro 'Ooone! Twwoo! Threee! Foour!'

                           Em - Let ring with slight bend

e--------------------------7-----------
B--------------------------8-----------
G--------------------------9-----------
D-----------------9--9--9--9--9--9--9--  x4
A-------------10--7--7--7--7--7--7--7--
E----7/10--7---------------------------

Verse: Chords played on Organ

C
See I only wanna have a good life

One I could live and wouldn't have to despise
     Dm    C      Bm     Am
But I only wanted you to know
                 C
That without the money
        D
There's nothing you can do
C
There are those that never had to work it out

Come from places where green from trees fall
    Dm    C      Bm     Am
But I only wanted you to know
                 C                D           Dm
That without the money that talks through and through
C
Without the money
        D            C
They're just like me and you

Verse 2:

'You can't slide' to 'thousand dollar bill'

e--------------------------7-----------
B--------------------------8-----------
G--------------------------9-----------
D-----------------9--9--9--9--9--9--9--  x4
A-------------10--7--7--7--7--7--7--7--
E----7/10--7---------------------------

Ascending organy bit:

      Dm   Em      Fm  Cm        Bm
See I only wanted everything but me
       Dm  Em      Fm   Cm        Bm
Yeah I only wanted everything for free

YEAHAAHAHAHAh! Ends on C major slid down.
Tap to rate this tab
# A B C D E F G H I J K L M N O P Q R S T U V W X Y Z