Song name
# A B C D E F G H I J K L M N O P Q R S T U V W X Y Z

Hives - Hives Are Law You Are Crime tab

Song: The Hives Are Law, You Are Crime
Artist: The Hives
Album: Your New Favourite Band
Guitarists: Nicholaus Arson, Vigilante Carlstroe
Tabber: Duncan Usher, Iksose3@hotmail.com





Verse/Intro
e|-------------------------------------------------------------------------|
B|---15-----------5--------------------------------------------------------|
G|------16-----7-----------------------------------------------------------|
D|-------------------------7--6-------0------------------------------------|
A|---------------------------------------2---------------------------------|
E|-------------------------------------------------------------------------|

Pre-Chorus
e|-------------------------------------------------------------------------|
B|---15---------5---15-----15----------------------------------------------|
G|------16---7---------16--------------------------------------------------|
D|-------------------------------------------------------------------------|
A|-------------------------------------------------------------------------|
E|-------------------------------------------------------------------------|

Chorus
e|-------------------------------||----------------------------------------|
B|-------------------------------||----------------------------------------|
G|--6-6-6-6-6--------------------||----4~----------------------------------|
D|--6-6-6-6-6--6--7-7-7-7-7--6---||----4~----------------------------------|
A|--4-4-4-4-4--6--7-7-7-7-7--6---||----2~----------------------------------|
E|-------------4--5-5-5-5-5--4---||----------------------------------------|

e|-------------------------||----------------------------------------------|
B|-------------------------||----------------------------------------------|
G|----6---6---6------------||-----16~--------------------------------------|
D|--6---6---6--------------||-----16~--------------------------------------|
A|-------------------------||----------------------------------------------|
E|-------------------------||----------------------------------------------|
    x x x x x x


A fucking amazing song, The Hives are geniuses in their own way. I think this
is all, some tiny little variations sometimes, but nothing too huge. Any comments
or questions to iksose3@hotmail.com, Cheers!
Tap to rate this tab
 
# A B C D E F G H I J K L M N O P Q R S T U V W X Y Z