Song name
# A B C D E F G H I J K L M N O P Q R S T U V W X Y Z

Hives - No Pun Intended tab

THE HIVES
NO PUN INTENDED
TYRRANASAURUS HIVES
TABBED BY nafone66

The first tab works fine, but it's easier to play the song this way. Barre chords are 
but it sounds smoother in simple power chords.

MAIN RIFF

e---------------------------------------------------------------|
B--------8-8-8-----------------12-12-12-------------------------|
G--4-4-4-7-7-7-7-7-7-7-7-7-7-7-11-11-11-11-11-11-11-11-11-11-11-|
D--4-4-4-5-5-5-7-7-7-7-7-7-7-7-9--9--9--11-11-11-11-11-11-11-11-|
A--2-2-2-------5-5-5-5-5-5-5-5----------9--9--9--9--9--9--9--9--|
E---------------------------------------------------------------|

e---------------------------------------------------------------------------|
B------------------------------8-8-8-------12-12-12-7-7-7-7-7-7-------------|
G--------7-7-7-7-7-7-7-7-4-4-4-7-7-7-7-7-7-11-11-11-6-6-6-6-6-6-------7-7-7-|
D--7-7-7-7-7-7-7-7-7-7-7-4-4-4-5-5-5-7-7-7-9--9--9--4-4-4-4-4-4-7-7-7-7-7-7-|
A--7-7-7-5-5-5-5-5-5-5-5-2-2-2-------5-5-5----------------------7-7-7-5-5-5-|
E--5-5-5--------------------------------------------------------5-5-5-------|

INTERLUDE

e------------------------------------------------------------------|
B------------------8-8-8-8-8-8-8-8-----------------8-8-8-8-8-8-8-8-|
G--7-7-7-7-7-7-7-7-7-7-7-7-7-7-7-7-7-7-7-7-7-7-7-7-7-7-7-7-7-7-7-7-|
D--7-7-7-7-7-7-7-7-9-9-9-9-9-9-9-9-7-7-7-7-7-7-7-7-9-9-9-9-9-9-9-9-|
A--9-9-9-9-9-9-9-9-----------------9-9-9-9-9-9-9-9-----------------|
E------------------------------------------------------------------|

e------------------------------------------------------------------|
B------------------------------------------------------------------|
G--7-7-7-7-9-9-9-9-7-7-7-7-9-9-9-9-7-7-7-7-7-7-7-7----9-9----9-9---|
D--7-7-7-7-9-9-9-9-7-7-7-7-9-9-9-9-7-7-7-7-7-7-7-7----9-9----9-9---|
A--5-5-5-5-7-7-7-7-5-5-5-5-7-7-7-7-5-5-5-5-5-5-5-5----7-7----7-7---|
E------------------------------------------------------------------|

Either figure out the order of the song yourself or look at ver 1 of this song, it's not 
to play.
Tap to rate this tab
# A B C D E F G H I J K L M N O P Q R S T U V W X Y Z