Guitaretab - guitar tabs
Song name
# A B C D E F G H I J K L M N O P Q R S T U V W X Y Z

Hives - Closed For The Season tab

Song: Closed for the Season
Album: Barely Legal
Artist: The Hives
Transcribed by: tituzz2
Mail: walter_20xx@hotmail.com


Note:  x~  -> long note


W/ distortion:
Intro:

d:-------------------------------------------------------|
a:-------------------------------------------------------|
f:-------------------------------------------------------|
c:-222~~-------------------------------------------------|
g:-000-0-0-0-0-0-0-0-0-0-0-0-0-0-0-0-0-0-0-0-0-0-0-0-0-0-|
c:-------------------------------------------------------|

W/ distortion:
Chorus: X2

d:-----------------------------------------------|
a:-----------------------------------------------|
f:-2-2-2-2-2-2-2-2-2-2-2-2-2-5-5-5-5-5-----------|
c:-2-2-2-2-2-2-2-2-2-2-2-2-2-5-5-5-5-5-5-5-5-5-5-|
g:-0-0-0-0-0-0-0-0-0-00-0-0-3-3-3-3-3-5-5-5-5-5-|
c:-------------------------------------3-3-3-3-3-|

d:----------------------------------------------------|
a:----------------------------------------------------|
f:-2-2-2-2-2-2-2-2-2-2-2-2-2-5-5-5-5-5-10-10-10-10-10-|
c:-2-2-2-2-2-2-2-2-2-2-2-2-2-5-5-5-5-5-10-10-10-10-10-|
g:-0-0-0-0-0-0-0-0-0-00-0-0-3-3-3-3-3- 8- 8- 8- 8- 8-|
c:----------------------------------------------------|

W/ distortion:
Before the verse:

d:-----------------------------------------------------|
a:-----------------------------------------------------|
f:-----------------------------------------------------|
c:--2~~------------------------------------------------|
g:--0-0-0-0-0-0-0-0-0-0-0-0-0-0-0-0-0-0-0-0-0-0-0-0-0--|
c:-----------------------------------------------------|

W/ distortion:
Verse1:

d:-------------------------------------------------|
a:-------------------------------------------------|
f:-2-2-2-2-2-2-5-5-5-5-5-5-------------------------|    this part X4
c:-2-2-2-2-2-2-5-5-5-5-5-5-5-5-5-5-5-5-3-3-3-3-3-3-|
g:-0-0-0-0-0-0-3-3-3-33-3-5-5-5-5-5-5-3-3-3-3-3-3-|
c:-------------------------3-3-3-3-3-3-1-1-1-1-1-1-|

d:-------------------------------------------------------------------------|
a:-------------------------------------------------------------------------|
f:-------------------------------------------------------------------------|
c:-5-5-5-5-5-5-5-5-5-5-5-5-5-5-5-222~~-------------------------------------|
g:-5-5-5-5-5-5-5-5-5-55-5-5-5-5-0000-0-0-0-0-0-0-0-0-0-0-0-0-0-0-0-0-0-0-|
c:-3-3-3-3-3-3-3-3-3-3-3-3-3-3-3-------------------------------------------|

W/ distortion:
Chorus: X2

d:-----------------------------------------------|
a:-----------------------------------------------|
f:-2-2-2-2-2-2-2-2-2-2-2-2-2-5-5-5-5-5-----------|
c:-2-2-2-2-2-2-2-2-2-2-2-2-2-5-5-5-5-5-5-5-5-5-5-|
g:-0-0-0-0-0-0-0-0-0-00-0-0-3-3-3-3-3-5-5-5-5-5-|
c:-------------------------------------3-3-3-3-3-|

d:----------------------------------------------------|
a:----------------------------------------------------|
f:-2-2-2-2-2-2-2-2-2-2-2-2-2-5-5-5-5-5-10-10-10-10-10-|
c:-2-2-2-2-2-2-2-2-2-2-2-2-2-5-5-5-5-5-10-10-10-10-10-|
g:-0-0-0-0-0-0-0-0-0-00-0-0-3-3-3-3-3- 8- 8- 8- 8- 8-|
c:----------------------------------------------------|

W/ distortion:
Before the verse:

d:-----------------------------------------------------|
a:-----------------------------------------------------|
f:-----------------------------------------------------|
c:-2~~-------------------------------------------------|
g:-0-0-0-0-0-0-0-0-0-0-0-0-0-0-0-0-0-0-0-0-0-0-0-0-0-0-|
c:-----------------------------------------------------|
[ Tab from: http://www.guitaretab.com/h/hives/78806.html ]
W/ distortion:
Verse2:

d:-------------------------------------------------|
a:-------------------------------------------------|
f:-2-2-2-2-2-2-5-5-5-5-5-5-------------------------|    this part X4
c:-2-2-2-2-2-2-5-5-5-5-5-5-5-5-5-5-5-5-3-3-3-3-3-3-|
g:-0-0-0-0-0-0-3-3-3-33-3-5-5-5-5-5-5-3-3-3-3-3-3-|
c:-------------------------3-3-3-3-3-3-1-1-1-1-1-1-|

d:-------------------------------------------------------------------------|
a:-------------------------------------------------------------------------|
f:-------------------------------------------------------------------------|
c:-5-5-5-5-5-5-5-5-5-5-5-5-5-5-5-222~~-------------------------------------|
g:-5-5-5-5-5-5-5-5-5-55-5-5-5-5-0000-0-0-0-0-0-0-0-0-0-0-0-0-0-0-0-0-0-0-|
c:-3-3-3-3-3-3-3-3-3-3-3-3-3-3-3-------------------------------------------|

d:---------|
a:---------|
f:-2-------|
c:-2-3~-5~-|
g:-0-3~-5~-|
c:---1~-3~-|

W/ distortion:
Chorus: X2

d:-----------------------------------------------|
a:-----------------------------------------------|
f:-2-2-2-2-2-2-2-2-2-2-2-2-2-5-5-5-5-5-----------|
c:-2-2-2-2-2-2-2-2-2-2-2-2-2-5-5-5-5-5-5-5-5-5-5-|
g:-0-0-0-0-0-0-0-0-0-00-0-0-3-3-3-3-3-5-5-5-5-5-|
c:-------------------------------------3-3-3-3-3-|

d:----------------------------------------------------|
a:----------------------------------------------------|
f:-2-2-2-2-2-2-2-2-2-2-2-2-2-5-5-5-5-5-10-10-10-10-10-|
c:-2-2-2-2-2-2-2-2-2-2-2-2-2-5-5-5-5-5-10-10-10-10-10-|
g:-0-0-0-0-0-0-0-0-0-00-0-0-3-3-3-3-3- 8- 8- 8- 8- 8-|
c:----------------------------------------------------|

W/ distortion:
Before the Solo:

d:------|
a:------|
f:-2~~--
c:-2~~--
g:-0~~--
c:------

W/ distortion:
Solo:

d:-------------------------------|
a:-------------------------------|
f:-------------------------------|
c:-------------------------------|
g:-0~-3-7-5-7-0~--0~-3-7-5-7-10~-|
c:-------------------------------|

W/ distortion:
Before the Chorus:

d:-----------------------------------------|
a:-----------------------------------------|
f:-2~~-------------------------------------|
c:-2~~-------------------------------------|
g:-0~~-0-0-0-0-0-0-0-0-0-0-0-0-0-0-0-0-0-0-|
c:-----------------------------------------|

W/ distortion:
Chorus: X5

d:-----------------------------------------------|
a:-----------------------------------------------|
f:-2-2-2-2-2-2-2-2-2-2-2-2-2-5-5-5-5-5-----------|
c:-2-2-2-2-2-2-2-2-2-2-2-2-2-5-5-5-5-5-5-5-5-5-5-|
g:-0-0-0-0-0-0-0-0-0-00-0-0-3-3-3-3-3-5-5-5-5-5-|
c:-------------------------------------3-3-3-3-3-|

d:----------------------------------------------------|
a:----------------------------------------------------|
f:-2-2-2-2-2-2-2-2-2-2-2-2-2-5-5-5-5-5-10-10-10-10-10-|
c:-2-2-2-2-2-2-2-2-2-2-2-2-2-5-5-5-5-5-10-10-10-10-10-|
g:-0-0-0-0-0-0-0-0-0-00-0-0-3-3-3-3-3- 8- 8- 8- 8- 8-|
c:----------------------------------------------------|

W/ distortion:
Last Chorus:

d:-----------------------------------------------|
a:-----------------------------------------------|
f:-2-2-2-2-2-2-2-2-2-2-2-2-2-5-5-5-5-5-----------|
c:-2-2-2-2-2-2-2-2-2-2-2-2-2-5-5-5-5-5-5-5-5-5-5-|
g:-0-0-0-0-0-0-0-0-0-00-0-0-3-3-3-3-3-5-5-5-5-5-|
c:-------------------------------------3-3-3-3-3-|

d:---------------------------------------|
a:---------------------------------------|
f:-2-2-2-2-2-2-2-2-2-2-2-2-2-5~-10~-2~---|
c:-2-2-2-2-2-2-2-2-2-2-2-2-2-5~-10~-2~-0-|
g:-0-0-0-0-0-0-0-0-0-00-0-0-3~- 8~-0~-0-|
c:---------------------------------------|
Related for Closed For The Season tab