Song name
# A B C D E F G H I J K L M N O P Q R S T U V W X Y Z

Hives - The Stomp tab

Artist: The Hives 
Song : The Stomp
album: BARELY LEGAL




                             7x
E||---------------------------||--------------------------|
B||---------------------------||--------------------------|
G||*-------------------------*||--------------------------|
D||*-------------------------*||--------------------------|
A||---3h-0--0--0----0--0--0---||--3h-0--0--0--3h-0--0--0--|
E||---------------------------||--------------------------|


                            3x
|---------------------------||--------------------------|
|---------------------------||--------------------------|
|*-------------------------*||--------------------------|
|*--3h-0--0--0----0--0--0--*||--3h-0--0--0--3h-0--0--0--|
|---------------------------||--------------------------|
|---------------------------||--------------------------|


                            4x
|---------------------------||--0--------1--------|--5--------3--------|
|---------------------------||--------------------|--------------------|
|*-------------------------*||--------------------|--------------------|
|*-------------------------*||--------------------|--------------------|
|---3h-0--0--0----0--0--0---||--------------------|--------------------|
|---------------------------||--------------------|--------------------|



--8--------7--------|--10--------12--------||
--------------------|----------------------||
--------------------|----------------------||
--------------------|----------------------||
--------------------|----------------------||
--------------------|----------------------||


OK, thats the beginning, rest of the song is almost the same, you can easily
get it by listening.
Tap to rate this tab
# A B C D E F G H I J K L M N O P Q R S T U V W X Y Z