Song name
# A B C D E F G H I J K L M N O P Q R S T U V W X Y Z

Hives - Because I Want To tab

intro/verse/chorus

e-----------------------------------------------------|
b-----------------------------------------------------|
g-----------------------------------------------------|
d--7-7-7---5--5-5-5---101010--------------------------|
a--5-5-5---3--3-3-3---8-8-8---8--8-8-8----------------|
E------------------------------6--6-6-6---------------|

interlude

e--------------------------------------------------------------------------|
b--------------------------------------------------------------------------|
g--------------------------------------------------------------------------|
d--7-7-7-7-7-7-7-7-7-7-7-7-7-7-7-7-7-7-7-7-7-7-7-7-7-7-7-7-----------------|
a--5-5-5-5-5-5-5-5-5-5-5-5-5-5-5-5-5-5-5-5-5-5-5-5-5-5-5-5-----------------|
E--------------------------------------------------------------------------|

middle eight (bass only)

g-------------------------------------------|
d-------------------------------------------|
a---5-5-5---3--3-3-3---8-8-8----------------|
E-------------------------------6--6-6-6----|

yes that is it.
Tap to rate this tab
# A B C D E F G H I J K L M N O P Q R S T U V W X Y Z