Song name
# A B C D E F G H I J K L M N O P Q R S T U V W X Y Z

Hives - You Got It All Wrong tab

THE HIVES - YOU GOT IT ALL... WRONG 

My favourite song from the Black & White Album.
Very easy! 

Intro: (not quite sure about it, it's very fast) 
e|---------------------|
B|---------------------|
G|--------------11111--|
D|--22222222222-22222--|
A|--22222222222-22222--|
E|--00000000000-00000--|

Verse:
e|-------------------------------------------------------|
B|-------------------------------------------------------|
G|------------------------------------66666666-44444444--|
D|--2222222222222222-4444444444444444-66666666-44444444--|  2x
A|--2222222222222222-4444444444444444-44444444-22222222--|
E|--0000000000000000-2222222222222222--------------------|

Pre-Chorus:
e|-----------------------------|
B|-----------------------------|
G|--6--------4-----------------|
D|--4--------4--------7--------|  2x
A|--4--------2--------7--------|
E|--------------------5--------|
  (let each chord ring)


All 3 parts once again!
Then...

Chorus:
e|--------------------------------------|
B|--------------------------------------|
G|--99999999----------------------------|
D|--99999999-99999999-7777777777777777--| 3x 
A|--77777777-99999999-7777777777777777--|
E|-----------77777777-5555555555555555--|

e|---------------------|
B|---------------------|
G|---------------------|
D|--77777777-99999999--|
A|--77777777-99999999--|
E|--55555555-77777777--|


Intro again.
Then a break. 
Then Verse & Pre-Chorus.
First Chorus line 8x.
Second Chorus line 2x. 

Outro:
e|------------|
B|------------|
G|------------|
D|--2---------|
A|--2--(32x)--|
E|--0---------|


That's it!

This is my first tab. Please rate & comment. :) 




Tap to rate this tab
# A B C D E F G H I J K L M N O P Q R S T U V W X Y Z