Song name
# A B C D E F G H I J K L M N O P Q R S T U V W X Y Z

Hives - Try It Again tab

This song is pretty easy to play
Im sure you can figure out the timing yourself
Theres another tab for this online but it missed out a few things so i thought id add them in

Intro

Guitar 1
e|----------------|
b|----------------|
G|----------------|
D|--4--4--4--4----|
A|--2--2--2--2-2--|
E|-------------0--|

2nd guitar
e|-------------------------|
B|-------------------------|
G|--44--22-4-4-------------|
D|-------------2-----------|
A|-------------------------|
E|-------------------------|

Verse:
Guitar 1
e|----------------|
b|----------------|
G|----------------|
D|--4--4--4--4----|
A|--2--2--2--2-2--|
E|-------------0--|

2nd guitar
e|----------------|
b|----------------|
G|----------------|
D|----------------|
A|--------7--2----|
E|--------5--0----|


Chorus:
Both guitars
e|-------------------------------------------|
B|-------------------------------------------|
G|---7----9----------------------------------|
D|---7----9----4-4-4-4-----------------------|
A|---5----7----2-2-2-2-2---------------------|
E|---------------------0---------------------|

Bridge:
Both Guitars
e|----------------------------------|
B|----------------------------------|
G|----------------------------------|
D|------------------4-6-7-9-11------|
A|-2-4-5-7-9--------2-4-5-7-9-------|
E|-0-2-3-5-7------------------------|

and thats pretty much it =]
Tap to rate this tab
 
# A B C D E F G H I J K L M N O P Q R S T U V W X Y Z