Song name
# A B C D E F G H I J K L M N O P Q R S T U V W X Y Z

Hizaki Grace Project - Everlasting Dream tab

Help us improve GuitareTab! Take a short survey!
-------------------------------------------------------------------------------
			     Everlasting Dream - Hizaki Grace Project
-------------------------------------------------------------------------------
Tabbed by: Smitty_bang
Email: Smitty_bang@hotmail.com

Tuning: EADGBE

another intro song haha.. i will eventualy get a whole thing down

e|---------------------------------------------------------------------------|
B|---------------------------------------------------------------------------|
G|-------7--7-7---7--6---------7/11---9--6--7~---11--9----14-14-14/15--------|
D|-------x--x-x---x--x-------------------------------------------------------|
A|-------5--5-5---5--4-------------------------------------------------------|
E|---------------------------------------------------------------------------|

e|---------------------------------------------------------------------------|
B|---------------------------------------------------------------------------|
G|--11--11--9--9----7-7p6-7-----14~--14/19--18--14--11--12--14---------------|
D|---------------------------------------------------------------------------|
A|---------------------------------------------------------------------------|
E|---------------------------------------------------------------------------|

e|---------------------------------------------------------------------------|
B|---------------------------------------------------------------------------|
G|----7--7--6--7--7/11---9--6--7~---11--9----14-14-14/15--11-----------------|
D|---------------------------------------------------------------------------|
A|---------------------------------------------------------------------------|
E|---------------------------------------------------------------------------|
Related for Everlasting Dream tab