Song name
# A B C D E F G H I J K L M N O P Q R S T U V W X Y Z

Hladno Pivo - Couvert tab

Prejednostavno je, desetak minuta posla. Mislim da je točno. Za ritam, poslušajte pjesmu.
Čisti zvuk, sa basom i treble-om na pola jedan(7-8/10 na pojačalu), a sredinom 
(mid-om) skoro pa do kraja.

Only too easy, twenty minutes of work. I think it's exact. To get the exact rythm, 
to the song.
Clean sound, with bass and treble onto one o' clock (7-8/10 on amp) and mid almost to 
end.

pbuha@seznam.cz

e|--------------------------------------------------------------------------|
B|--------------------------------------------------------------------------|
G|-----------------9---9---9----10--10--10-----14-12-10-9----12-10-9--7-----|
D|------------------10--10--10----10--10-10----15-14-12-10---14-12-10-9-----|
A|--------------------------------------------------------------------------|
E|--------------------------------------------------------------------------| X"

e|--------------------------------------------------------------------------|
B|--------------------------------------------------------------------------|
G|---9--5-12-7---9--5-12-7-------9--7-5-4--5-4-5-7-9--7---------------------|
D|---10-7-14-9---10-7-14-9-------10-9-7-5--7-5-7-9-10-9--X2-----------------|
A|--------------------------------------------------------------------------|
E|--------------------------------------------------------------------------|

e|--------------------------------------------------------------------------|
B|--------------------------------------------------------------------------|
G|----9---9---9----10---10---10----14-12-10-9----12-10-9--7-----------------|
D|----10*-10*-10*--10*--10*--10*---15-14-12-10---14-12-10-9-----------------|
A|--------------------------------------------------------------------------|
E|--------------------------------------------------------------------------|

e|--------------------------------------------------------------------------|
B|--------------------------------------------------------------------------|
G|---9--5-12-7---9--5-12-7--------------------------------------------------|
D|---10-7-14-9---10-7-14-9--------------------------------------------------|
A|--------------------------------------------------------------------------|
E|--------------------------------------------------------------------------|
Tap to rate this tab
# A B C D E F G H I J K L M N O P Q R S T U V W X Y Z