Guitaretab - guitar tabs
Song name
# A B C D E F G H I J K L M N O P Q R S T U V W X Y Z

Hladno Pivo - Bitange I Princeze tab

note: on a G string its 11 not 1
Intro 
    1 + 2 + 3 + 4 + 1 + 2 + 3 + 4 + 1 + 2 + 3 + 4 + 1 + 2 + 3 + 4 +
E|-----------------------------------------------------------------|
H|-----------------------------------------------------------------|
G|-7---7---7-7-7-9---7-7---7-7-7-7/11--11-111111-12--1111-1111-14~-|
D|-0---0---0-0-0-0---0-0---0-0-0-0-0---0---0-0-0-0---0-0---0-0-----|
A|-----------------------------------------------------------------|
E|-----------------------------------------------------------------|

[ Tab from: http://www.guitaretab.com/h/hladno-pivo/95234.html ]
[theme] (first line is guitar #1, second line is guitar #2)
    1 + 2 + 3 + 4 + 1 + 2 + 3 + 4 + 1 + 2 + 3 + 4 + 1 + 2 + 3 + 4 +
E|-14~~~~~~~~~---12~~~~~~~~~~~-------------------------------------|
H|---------------------------------15~~~~~~~~~---14~~~~~~~~~~~-----|
G|-------------14~-------------14~-------------14~-------------11~-|
D|-----------------------------------------------------------------|
A|-----------------------------------------------------------------|
E|-----------------------------------------------------------------|
  |                                                                 |
  | 1 + 2 + 3 + 4 + 1 + 2 + 3 + 4 + 1 + 2 + 3 + 4 + 1 + 2 + 3 + 4 + |
E|-----------------------------------------------------------------|
H|-----------------------------------------------------------------|
G|-----------------------------------------------------------------|
D|-7---7-7-7-7-7-2---2-2-2-2-2-2-2-4---4-4-4-4-4-------------------|
A|-5---5-5-5-5-5-0---0-0-0-0-0-0-0-2---2-2-2-2-2-4---4-4-4-4-4-4-4-|
E|-----------------------------------------------2---2-2-2-2-2-2-2-|
pm      . . . . .     . . . . . . .     . . . . .     . . . . . . .


    1 + 2 + 3 + 4 + 1 + 2 + 3 + 4 + 1 + 2 + 3 + 4 + 1 + 2 + 3 + 4 +
E|-----------------------------------------------------------------|
H|----------------------15~~~~-15~-14~~~-15~~-17\15~~~~~~~~~~~~~~~-|
G|-12~~~-14~~-16\14~~~~--------------------------------------------|
D|-----------------------------------------------------------------|
A|-----------------------------------------------------------------|
E|-----------------------------------------------------------------|
  |                                                                 |
  | 1 + 2 + 3 + 4 + 1 + 2 + 3 + 4 + 1 + 2 + 3 + 4 + 1 + 2 + 3 + 4 + |
E|-----------------------------------------------------------------|
H|-----------------------------------------------------------------|
G|-----------------------------------------------------------------|
D|---------------7---7-7-7-7-7-7-7---------------7---7-7-7-7-7-7-7-|
A|-5---5-5-5-5-5-5---5-5-5-5-5-5-5-7---7-7-7-7-7-5---5-5-5-5-5-5-5-|
E|-3---3-3-3-3-3-------------------5---5-5-5-5-5-------------------|
pm      . . . . .     . . . . . . .     . . . . .
Related for Bitange I Princeze tab