Song name
# A B C D E F G H I J K L M N O P Q R S T U V W X Y Z

Hladno Pivo - Nema Vise tab

Highlighted       Show chord diagrams
A          E         A          E
Nema vise, nema vise nase birtije
A               D             A         E
Tu je jos jedan vrlo vrijedan mramorni WC
D                       E
Gdje dva deci piva dode ko prije krigla
A         E              A
I nitko, nitko se ne smije


D                      A
Sjedim u sirokoj fotelji
      E                fism 
Ko na elektricnoj stolici
    D                 A
Jer kako da pijem kad sve se bijeli
E           A
Kao u bolnici

solo:

E------------------------------2-2-2-0---
B--2-2-2-3-2-0-0---0-2-2-2-3-2---------3-
G----------------2-----------------------
D----------------------------------------
A----------------------------------------
E----------------------------------------


   D                     A
Na zidu gdje smo pisali rezultate
     E           fism
Razularenih pijanki
D              A
Sad vise slike nekog Croate
       E               A
Mjesto kalendara sisatih

solo:

E--2---2-0---0-------2-0---
B----3-----2---3-2-0-----3-
G--------------------------
D--------------------------
A--------------------------
E--------------------------

                            A
Gdje nas je brkata konobarica
  E
U plavim borosanama
D                    A    E 
Nekad strpljivo slusala-A-A-A
      D
Stoji mali bijeli kompjuter
  E 
i isto takvo osoblje
   D                     A    E  
ko mutavo mijenja pepeljare-E-E-E
Tap to rate this tab
 
# A B C D E F G H I J K L M N O P Q R S T U V W X Y Z