Song name
# A B C D E F G H I J K L M N O P Q R S T U V W X Y Z

Hladno Pivo - Tesko Je Ful Biti Kul Kad Si Tu tab

Bass riff: (intro i tema)
-----------------------------------|
-----------------------------------|
-2-2-2-2-2-2-2-2-2-2-2-2-2-2-5-5-0-|  2X
-----------------------------------|

B (bass riff)
Nije lako kad si mamino zlato
Izgledati ovako opako
Nije lako ali mozda bas zato
G                     A             F#     D5
Prodju te trnci kad nabildani crnci repaju

(onda gitara udara sa D5 na B5, isto kao u prvoj strofi sve do
 refrena)

         B5
Tesko je ful biti kul kad si tu
         G5
Tesko je ful biti kul kad si tu
         D5
Tesko je naci prave ribe
      A5
kraj ovakve male domovine


Prije drugog refrena ima opet mali rif:
e--------------------------------------|
B--------------------------------------|
G--------------------------------------|
D-4-4-4-4-4-4-4-4-4-4-4-4-4--7--7--7---|
A-4-4-4-4-4-4-4-4-4-4-4-4-4--7--7--7---|
E-2-2-2-2-2-2-2-2-2-2-2-2-2--5--5--5---|

Za vrijeme onog repovanja svira Bm, pa poslije toga:
e----------------------------------------|
B----------------------------------------|
G-7-4--------7---------9-----------------|
D-7-4--------7---------9-----------------|
A-5-2--------5---------7-----------------|
E----------------------------------------|

e----------------------------------------|
B----------------------------------------|
G----------------------------------------|
D-4-4-4-4-4-4-4-4-4-4-4-4-4--7--7--7-----|
A-4-4-4-4-4-4-4-4-4-4-4-4-4--7--7--7-----|
E-2-2-2-2-2-2-2-2-2-2-2-2-2--5--5--5-----|

Poslednji refren svira samo B5
Tap to rate this tab
# A B C D E F G H I J K L M N O P Q R S T U V W X Y Z