Song name
# A B C D E F G H I J K L M N O P Q R S T U V W X Y Z

Hoax - Paranoia tab

Hoax- Paranoia Intro

e|-------------------------------------------------------------------------|
b|-------------------------------------------------------------------------|
g|-------------------------------------------------------------------------|
d|-----------------------------5-----5-------------------------------------|
a|-----9-----9-----2-----2--3-----3--------7-----7-----5-----5----4-----4--|
e|--7-----7-----0-----0-----------------5-----5-----3-----3-----2----2-----|

--------------------|
--------------------|
--------------------|
--------------------|
-----9----10-----9--|
--7-----8-----7-----|
Tap to rate this tab
# A B C D E F G H I J K L M N O P Q R S T U V W X Y Z