Song name
# A B C D E F G H I J K L M N O P Q R S T U V W X Y Z

Hoax - Guilt tab

Dust & Blood
Guilt
Tabbed by U B the band
Tuning C G C F A D

Legend
/-slide up                          ~-Tremolo

Intro Guitars 1 & 2
D|-----------------------------------------------------------------|
A|-----------------------------------------------------------------|
F|-----------------------------------------------------------------|
C|--5--5--5--5--5--5--5--5----------4--4--4--4--4--4--4--4---------|
G|--5--5--5--5--5--5--5--5----------4--4--4--4--4--4--4--4---------|
C|--5--5--5--5--5--5--5--5----------4--4--4--4--4--4--4--4---------|

Intro Guitars 1 & 2
D|-----------------------------------------------------------------|
A|-----------------------------------------------------------------|
F|-----------------------------------------------------------------|
C|--3--3--3--3--3--3--3--3----------4--4--4--4--4--4--4--4----4----|
G|--3--3--3--3--3--3--3--3----------4--4--4--4--4--4--4--4----4----|
C|--3--3--3--3--3--3--3--3----------4--4--4--4--4--4--4--4----4----|

Intro Guitar 1
D|-----------------------------------------------------------------|
A|-----------------------------------------------------------------|
F|-----------------------------------------------------------------|
C|--5---5---5---5---5---5---5---5---4---4---4---4---4---4---4---4--|
G|--5---5---5---5---5---5---5---5---4---4---4---4---4---4---4---4--|
C|--5---5---5---5---5---5---5---5---4---4---4---4---4---4---4---4--|
                                                                   |
Intro Guitar 2                                                     |
D|------18------------------------------18-------------------------|
A|----15------------------------------15---------------------------|
F|--16------------------------------15-----------------------------|
C|-----------------------------------------------------------------|
G|-----------------------------------------------------------------|
C|-----------------------------------------------------------------|

Intro Guitar 1
D|-----------------------------------------------------------------|
A|-----------------------------------------------------------------|
F|-----------------------------------------------------------------|
C|--3---3---3---3---3---3---3---3---4---4---4---4---4---4---4---4--|
G|--3---3---3---3---3---3---3---3---4---4---4---4---4---4---4---4--|
C|--3---3---3---3---3---3---3---3---4---4---4---4---4---4---4---4--|
                                                                   |
Intro Guitar 2                                                     |
D|------18------------------------------18-------------------------|
A|----15------------------------------15---------------------------|
F|--14------------------------------15-----------------------------|
C|-----------------------------------------------------------------|
G|-----------------------------------------------------------------|
C|-----------------------------------------------------------------|

Verse 1 Guitar 1
D|--5--------------------------------------------------------------|
A|--8--------------------------------------------------------------|
F|--7--------------------------------------------------------------|
C|--5--------------------------------------------------------------|
G|--5-------------------------------4------------------------------|
C|--5-------------------------------4------------------------------|

Verse 1 Guitar 1
D|-----------------------------------------------------------------|
A|-----------------------------------------------------------------|
F|----------------------------------7------------------------------|
C|----------------------------------4------------------------------|
G|--3-------------------------------4------------------------------|
C|--3-------------------------------4------------------------------|

Verse 1 Guitar 1
D|-----------------------------------------------------------------|
A|-----------------------------------------------------------------|
F|-----------------------------------------------------------------|
C|--8--------------------------------------------------------------|
G|--5--5--5--5--5--5--5--5----------4--4--4--4--4--4--4--4---------|
C|--5--5--5--5--5--5--5--5----------4--4--4--4--4--4--4--4---------|

Verse 1 Guitar 1
D|-----------------------------------------------------------------|
A|-----------------------------------------------------------------|
F|----------------------------------7------------------------------|
C|----------------------------------4--4--4--4--4--4--4--4----4----|
G|--3--3--3--3--3--3--3--3----------4--4--4--4--4--4--4--4----4----|
C|--3--3--3--3--3--3--3--3----------4--4--4--4--4--4--4--4----4----|

Chorus Guitars 1 & 2
D|-----------------------------------------------------------------|
A|-----------------------------------------------------------------|
F|-----------------------------------------------------------------|
C|--5----5----5-----5----5----5-----4----4----4-----4----4----4----|
G|--5----5----5-----5----5----5-----4----4----4-----4----4----4----|
C|--5----5----5-----5----5----5-----4----4----4-----4----4----4----|

Chorus Guitars 1 & 2
D|-----------------------------------------------------------------|
A|-----------------------------------------------------------------|
F|-----------------------------------------------------------------|
C|--3----3----3-----3----3----3-----4----4----4-----4----4----4----|
G|--3----3----3-----3----3----3-----4----4----4-----4----4----4----|
C|--3----3----3-----3----3----3-----4----4----4-----4----4----4----|

Chorus Guitars 1 & 2
D|-----------------------------------------------------------------|
A|-----------------------------------------------------------------|
F|-----------------------------------------------------------------|
C|--5----5----5-----5----5----5-----4----4----4-----4----4----4----|
G|--5----5----5-----5----5----5-----4----4----4-----4----4----4----|
C|--5----5----5-----5----5----5-----4----4----4-----4----4----4----|

Chorus Guitars 1 & 2
D|-----------------------------------------------------------------|
A|-----------------------------------------------------------------|
F|-----------------------------------------------------------------|
C|--3----3----3-----3----3----3-----4----4----4-----4----4----4----|
G|--3----3----3-----3----3----3-----4----4----4-----4----4----4----|
C|--3----3----3-----3----3----3-----4----4----4-----4----4----4----|

Post Chorus Guitars 1 & 2
D|-----------------------------------------------------------------|
A|-----------------------------------------------------------------|
F|-----------------------------------------------------------------|
C|--5--5--5--5--5--5--5--5-0--------4--4--4--4--4--4--4--4---------|
G|--5--5--5--5--5--5--5--5----------4--4--4--4--4--4--4--4---------|
C|--5--5--5--5--5--5--5--5----------4--4--4--4--4--4--4--4---------|

Post Chorus Guitars 1 & 2
D|-----------------------------------------------------------------|
A|-----------------------------------------------------------------|
F|-----------------------------------------------------------------|
C|--3--3--3--3--3--3--3--3----------4--4--4--4--4--4--4--4----4-4--|
G|--3--3--3--3--3--3--3--3----------4--4--4--4--4--4--4--4----4-4--|
C|--3--3--3--3--3--3--3--3----------4--4--4--4--4--4--4--4----4-4--|

Verse 2 Guitar 1
D|--5--------------------------------------------------------------|
A|--8--------------------------------------------------------------|
F|--7--------------------------------------------------------------|
C|--5--------------------------------------------------------------|
G|--5-------------------------------4------------------------------|
C|--5-------------------------------4------------------------------|

Verse 2 Guitar 1
D|-----------------------------------------------------------------|
A|-----------------------------------------------------------------|
F|----------------------------------7------------------------------|
C|----------------------------------4------------------------------|
G|--3-------------------------------4------------------------------|
C|--3-------------------------------4------------------------------|
                                                                   |
Verse 2 Guitar 3 (studio fill-in)                                  |
D|-----------------------------------------------------------------|
A|----------------------------------------------------------10-----|
F|------------------------------------------------7---/-10------10-|
C|-----------------------------------------------------------------|
G|-----------------------------------------------------------------|
C|-----------------------------------------------------------------|

Verse 2 Guitar 1
D|-----------------------------------------------------------------|
A|-----------------------------------------------------------------|
F|-----------------------------------------------------------------|
C|--8--------------------------------------------------------------|
G|--5--5--5--5--5--5--5--5----------4--4--4--4--4--4--4--4---------|
C|--5--5--5--5--5--5--5--5----------4--4--4--4--4--4--4--4---------|
                                                                   |
Verse 2 Guitar 2                                                   |
D|------18------------------------------18-------------------------|
A|----15------------------------------15---------------------------|
F|--16------------------------------15-----------------------------|
C|-----------------------------------------------------------------|
G|-----------------------------------------------------------------|
C|-----------------------------------------------------------------|
                                                                   |
Verse 2 Guitar 3 (studio fill-in)                                  |
D|-----------------------------------------------------------------|
A|--8--------------------------------------------------------------|
F|-----------------------------------------------------------------|
C|-----------------------------------------------------------------|
G|-----------------------------------------------------------------|
C|-----------------------------------------------------------------|

Verse 2 Guitar 1
D|-----------------------------------------------------------------|
A|-----------------------------------------------------------------|
F|----------------------------------7--------7--7------------------|
C|----------------------------------4--4--4--4--4--4--4--4----4----|
G|--3--3--3--3--3--3--3--3----------4--4--4--4--4--4--4--4----4----|
C|--3--3--3--3--3--3--3--3----------4--4--4--4--4--4--4--4----4----|
                                                                   |
Verse 2 Guitar 2                                                   |
D|------18------------------------------18-------------------------|
A|----15------------------------------15---------------------------|
F|--14------------------------------15-----------------------------|
C|-----------------------------------------------------------------|
G|-----------------------------------------------------------------|
C|-----------------------------------------------------------------|

Chorus Guitars 1 & 2
D|-----------------------------------------------------------------|
A|-----------------------------------------------------------------|
F|-----------------------------------------------------------------|
C|--5----5----5-----5----5----5-----4----4----4-----4----4----4----|
G|--5----5----5-----5----5----5-----4----4----4-----4----4----4----|
C|--5----5----5-----5----5----5-----4----4----4-----4----4----4----|

Chorus Guitars 1 & 2
D|-----------------------------------------------------------------|
A|-----------------------------------------------------------------|
F|-----------------------------------------------------------------|
C|--3----3----3-----3----3----3-----4----4----4-----4----4----4----|
G|--3----3----3-----3----3----3-----4----4----4-----4----4----4----|
C|--3----3----3-----3----3----3-----4----4----4-----4----4----4----|

Chorus Guitars 1 & 2
D|-----------------------------------------------------------------|
A|-----------------------------------------------------------------|
F|-----------------------------------------------------------------|
C|--5----5----5-----5----5----5-----4----4----4-----4----4----4----|
G|--5----5----5-----5----5----5-----4----4----4-----4----4----4----|
C|--5----5----5-----5----5----5-----4----4----4-----4----4----4----|

Chorus Guitars 1 & 2
D|-----------------------------------------------------------------|
A|-----------------------------------------------------------------|
F|-----------------------------------------------------------------|
C|--3----3----3-----3----3----3-----4----4----4-----4----4----4----|
G|--3----3----3-----3----3----3-----4----4----4-----4----4----4----|
C|--3----3----3-----3----3----3-----4----4----4-----4----4----4----|

Bridge Guitar 1
D|-----------------------------------------------------------------|
A|-----------------------------------------------------------------|
F|-----------------------------------------------------------------|
C|--5----5----5-----5----5----5-----4----4----4-----4----4----4----|
G|--5----5----5-----5----5----5-----4----4----4-----4----4----4----|
C|--5----5----5-----5----5----5-----4----4----4-----4----4----4----|
                                                                   |
Bridge Guitar 2                                                    |
D|--18~~~~~~~~~~~~~~~~~~~~~~~~~~~~--17~~~~~~~~~~~~~~~~~~~~~~~~~~~--|
A|-----------------------------------------------------------------|
F|-----------------------------------------------------------------|
C|-----------------------------------------------------------------|
G|-----------------------------------------------------------------|
C|-----------------------------------------------------------------|

Bridge Guitar 1
D|-----------------------------------------------------------------|
A|-----------------------------------------------------------------|
F|-----------------------------------------------------------------|
C|--3----3----3-----3----3----3-----4----4----4-----4----4----4----|
G|--3----3----3-----3----3----3-----4----4----4-----4----4----4----|
C|--3----3----3-----3----3----3-----4----4----4-----4----4----4----|
                                                                   |
Bridge Guitar 2                                                    |
D|-----------------------------------------------------------------|
A|-----------------------------------------------------------------|
F|--12~~~~~~~~~~~~~~~~~~~~~~~~~~~~--11~~~~~~~~~~~~~~~~~~~~~~~~~~~--|
C|-----------------------------------------------------------------|
G|-----------------------------------------------------------------|
C|-----------------------------------------------------------------|

Bridge Guitar 1
D|-----------------------------------------------------------------|
A|-----------------------------------------------------------------|
F|-----------------------------------------------------------------|
C|--5----5----5-----5----5----5-----4----4----4-----4----4----4----|
G|--5----5----5-----5----5----5-----4----4----4-----4----4----4----|
C|--5----5----5-----5----5----5-----4----4----4-----4----4----4----|
                                                                   |
Bridge Guitar 2                                                    |
D|-----------------------------------------------------------------|
A|-----------------------------------------------------------------|
F|-----------------------------------------------------------------|
C|-----------------------------------------------------------------|
G|--10~~~~~~~~~~~~~~~~~~~~~~~~~~~~--9~~~~~~~~~~~~~~~~~~~~~~~~~~~~--|
C|-----------------------------------------------------------------|

Bridge Guitar 1
D|-----------------------------------------------------------------|
A|-----------------------------------------------------------------|
F|-----------------------------------------------------------------|
C|--3----3----3-----3----3----3-----4----4----4-----4----4----4----|
G|--3----3----3-----3----3----3-----4----4----4-----4----4----4----|
C|--3----3----3-----3----3----3-----4----4----4-----4----4----4----|
                                                                   |
Bridge Guitar 2                                                    |
D|-----------------------------------------------------------------|
A|-----------------------------------------------------------------|
F|-----------------------------------------------------------------|
C|-----------------------------------------------------------------|
G|--8~~~~~~~~~~~~~~~~~~~~~~~~~~~~~--9~~~~~~~~~~~~~~~~~~~~~~~~~~~~--|
C|-----------------------------------------------------------------|

Verse 3 Guitar 1
D|-----------------------------------------------------------------|
A|--8--------------------------------------------------------------|
F|--7--------------------------------------------------------------|
C|--5--------------------------------------------------------------|
G|--5-------------------------------4------------------------------|
C|--5-------------------------------4------------------------------|

Verse 3 Guitar 1
D|-----------------------------------------------------------------|
A|-----------------------------------------------------------------|
F|----------------------------------7------------------------------|
C|----------------------------------4------------------------------|
G|--3-------------------------------4------------------------------|
C|--3-------------------------------4------------------------------|
                                                                   |
Verse 3 Guitar 3 (studio fill-in)                                  |
D|-----------------------------------------------------------------|
A|----------------------------------------------------------10-----|
F|------------------------------------------------7---/-10------10-|
C|-----------------------------------------------------------------|
G|-----------------------------------------------------------------|
C|-----------------------------------------------------------------|

Verse 3 Guitar 1
D|-----------------------------------------------------------------|
A|-----------------------------------------------------------------|
F|-----------------------------------------------------------------|
C|--8--------------------------------------------------------------|
G|--5--5--5--5--5--5--5--5----------4--4--4--4--4--4--4--4---------|
C|--5--5--5--5--5--5--5--5----------4--4--4--4--4--4--4--4---------|
                                                                   |
Verse 3 Guitar 2                                                   |
D|------18------------------------------18-------------------------|
A|----15------------------------------15---------------------------|
F|--16------------------------------15-----------------------------|
C|-----------------------------------------------------------------|
G|-----------------------------------------------------------------|
C|-----------------------------------------------------------------|
                                                                   |
Verse 3 Guitar 3 (studio fill-in)                                  |
D|-----------------------------------------------------------------|
A|--8--------------------------------------------------------------|
F|-----------------------------------------------------------------|
C|-----------------------------------------------------------------|
G|-----------------------------------------------------------------|
C|-----------------------------------------------------------------|

Verse 3 Guitar 1
D|-----------------------------------------------------------------|
A|-----------------------------------------------------------------|
F|----------------------------------7------------------------------|
C|----------------------------------4--4--4--4--4--4--4--4----4----|
G|--3--3--3--3--3--3--3--3----------4--4--4--4--4--4--4--4----4----|
C|--3--3--3--3--3--3--3--3----------4--4--4--4--4--4--4--4----4----|
                                                                   |
Verse 3 Guitar 2                                                   |
D|------18------------------------------18-------------------------|
A|----15------------------------------15---------------------------|
F|--14------------------------------15-----------------------------|
C|-----------------------------------------------------------------|
G|-----------------------------------------------------------------|
C|-----------------------------------------------------------------|

Chorus Guitars 1 & 2
D|-----------------------------------------------------------------|
A|-----------------------------------------------------------------|
F|-----------------------------------------------------------------|
C|--5----5----5-----5----5----5-----4----4----4-----4----4----4----|
G|--5----5----5-----5----5----5-----4----4----4-----4----4----4----|
C|--5----5----5-----5----5----5-----4----4----4-----4----4----4----|

Chorus Guitars 1 & 2
D|-----------------------------------------------------------------|
A|-----------------------------------------------------------------|
F|-----------------------------------------------------------------|
C|--3----3----3-----3----3----3-----4----4----4-----4----4----4----|
G|--3----3----3-----3----3----3-----4----4----4-----4----4----4----|
C|--3----3----3-----3----3----3-----4----4----4-----4----4----4----|

Chorus Guitars 1 & 2
D|-----------------------------------------------------------------|
A|-----------------------------------------------------------------|
F|-----------------------------------------------------------------|
C|--5----5----5-----5----5----5-----4----4----4-----4----4----4----|
G|--5----5----5-----5----5----5-----4----4----4-----4----4----4----|
C|--5----5----5-----5----5----5-----4----4----4-----4----4----4----|

Chorus Guitars 1 & 2
D|-----------------------------------------------------------------|
A|-----------------------------------------------------------------|
F|-----------------------------------------------------------------|
C|--3----3----3-----3----3----3-----4----4----4-----4----4----4----|
G|--3----3----3-----3----3----3-----4----4----4-----4----4----4----|
C|--3----3----3-----3----3----3-----4----4----4-----4----4----4----|

Chorus Guitars 1 & 2
D|-----------------------------------------------------------------|
A|-----------------------------------------------------------------|
F|-----------------------------------------------------------------|
C|--5----5----5-----5----5----5-----4----4----4-----4----4----4----|
G|--5----5----5-----5----5----5-----4----4----4-----4----4----4----|
C|--5----5----5-----5----5----5-----4----4----4-----4----4----4----|

Chorus Guitars 1 & 2
D|-----------------------------------------------------------------|
A|-----------------------------------------------------------------|
F|-----------------------------------------------------------------|
C|--3----3----3-----3----3----3-----4----4----4-----4----4----4----|
G|--3----3----3-----3----3----3-----4----4----4-----4----4----4----|
C|--3----3----3-----3----3----3-----4----4----4-----4----4----4----|

Chorus Guitars 1 & 2
D|-----------------------------------------------------------------|
A|-----------------------------------------------------------------|
F|-----------------------------------------------------------------|
C|--5----5----5-----5----5----5-----4----4----4-----4----4----4----|
G|--5----5----5-----5----5----5-----4----4----4-----4----4----4----|
C|--5----5----5-----5----5----5-----4----4----4-----4----4----4----|

Chorus Guitars 1 & 2
D|-----------------------------------------------------------------|
A|-----------------------------------------------------------------|
F|-----------------------------------------------------------------|
C|--3----3----3-----3----3----3-----4----4----4-----4----4----4----|
G|--3----3----3-----3----3----3-----4----4----4-----4----4----4----|
C|--3----3----3-----3----3----3-----4----4----4-----4----4----4----|

Outro Guitar 1
D|-----------------------------------------------------------------|
A|-----------------------------------------------------------------|
F|-----------------------------------------------------------------|
C|--5----5----5-----5----5----5-----4----4----4-----4----4----4----|
G|--5----5----5-----5----5----5-----4----4----4-----4----4----4----|
C|--5----5----5-----5----5----5-----4----4----4-----4----4----4----|
                                                                   |
Outro Guitar 2                                                     |
D|-----------------------------------------------------------------|
A|-----------------------------------------------------------------|
F|--12~~~~~~~~~~~~--/15-------------11~~~~~~~~~~~~--/15------------|
C|-----------------------------------------------------------------|
G|-----------------------------------------------------------------|
C|-----------------------------------------------------------------|

Outro Guitar 1
D|-----------------------------------------------------------------|
A|-----------------------------------------------------------------|
F|-----------------------------------------------------------------|
C|--3----3----3-----3----3----3-----4----4----4-----4----4----4----|
G|--3----3----3-----3----3----3-----4----4----4-----4----4----4----|
C|--3----3----3-----3----3----3-----4----4----4-----4----4----4----|
                                                                   |
Outro Guitar 2                                                     |
D|-----------------------------------------------------------------|
A|-----------------------------------------------------------------|
F|--10~~~~~~~~~~~~--/15-------------12~~~~~~~~~~~~~~~~~~~~~~~~~~~--|
C|-----------------------------------------------------------------|
G|-----------------------------------------------------------------|
C|-----------------------------------------------------------------|

Outro Guitar 1
D|-----------------------------------------------------------------|
A|--8--------------------------------------------------------------|
F|--7--------------------------------------------------------------|
C|--5--------------------------------------------------------------|
G|--5--------------------------------------------------------------|
C|--5--------------------------------------------------------------|
                                                                   |
Outro Guitar 2                                                     |
D|-----------------------------------------------------------------|
A|-----------------------------------------------------------------|
F|-----------------------------------------------------------------|
C|--12-------------------------------------------------------------|
G|-----------------------------------------------------------------|
C|-----------------------------------------------------------------|

Finished!
Tap to rate this tab
# A B C D E F G H I J K L M N O P Q R S T U V W X Y Z