Song name
# A B C D E F G H I J K L M N O P Q R S T U V W X Y Z

Hoax - My Society tab

Artist: Hoax
Album: Safety First
Track: My Society
Tabbed by Josh White 
Standard tuning. High to low: (e-b-g-d-a-e)
P=Pulloff

Intro/Chorus:
e-------------------------------------|
b-------------------------------------|
g-------------------------------------|
d----2--2--2--------------------------|
a----2--2--2--0--2p0------------------|
e--------------------0-0-0-0-0-0-0-0--|

Verse:

e-------------------------|
b-------------------------|
g-------------------------|  Repeat until end of verse.
d----0--0--3--0--3--0-----|
a----------------------3--|
e-------------------------|

Verse Two:

The first guitar plays the same tune as verse one. Guitar two plays a similar tune,
but it is improvised, so I cannot tab it. Just play the first guitar part.
Tap to rate this tab
 
# A B C D E F G H I J K L M N O P Q R S T U V W X Y Z