Song name
# A B C D E F G H I J K L M N O P Q R S T U V W X Y Z

Hoax - Necropolis tab

Intro                                   2x
e--------------------------------------------------|
b--------------------------------------------------|
g--------------------------------------------------|
d----5--8--7-----5---7--------------5/3------------|
a----5--8--7-----5---7--------------3/1------------|
e----3--6--5-----3---5--------------3/1------------|

 then u do this
e----------------------------------------|
b----------------------------------------|
g----------------------------------------|
d-------5--8--7-----5---7----------------|
a-------5--8--7-----5---7----------------|
e-------3--6--5-----3---5----------------|

then this
e-------------------------------------------------------------------------|
b-------------------------------------------------------------------------|
g-------------------------------------------------------------------------|
d--------------2--5-4--7--6-----------------------------------------------|
a--3--6---5--8------------------------------------------------------------|
e-------------------------------------------------------------------------|

thats all i know!!!! i will try to do more the next time
Tap to rate this tab
# A B C D E F G H I J K L M N O P Q R S T U V W X Y Z