Song name
# A B C D E F G H I J K L M N O P Q R S T U V W X Y Z

Hoax - Exposed tab

HOAX- EXPOSED
From the album "Safety First"

Intro

e|-------------11----------------|-----------9--------------|
B|------9----------9------9------|-----7--------7-----7-----|
G|---------10---------10-----10--|--------8--------8-----8--|
D|--11---------------------------|--9-----------------------|
A|-------------------------------|--------------------------|
E|-------------------------------|--------------------------|

e|-----------7--------------|-----------9--------------|.|
B|-----5--------5-----5-----|-----7--------7-----7-----|.|
G|--------6--------6-----6--|--------8--------8-----8--|.|
D|--7-----------------------|--9-----------------------|.|
A|--------------------------|--------------------------|.|
E|--------------------------|--------------------------|.|

I will soon submit a full tab of this song
Tap to rate this tab
# A B C D E F G H I J K L M N O P Q R S T U V W X Y Z