Song name
# A B C D E F G H I J K L M N O P Q R S T U V W X Y Z

Hoffmaestro And Chraa - Highway Man tab

-------------------------------------------------------------------------------
			     Highway Man - Hoffmaestro
-------------------------------------------------------------------------------
Tabbed by:ELINO
Email:elinstensson@hotmail.com

Tuning: reagular

Its basicly theese chords: Em, C, G, Bm, Em..but you put'em up on "frets". you do every 
several times...listen to the song and puzzle it together by your self:)

                                                   Em                                    
                                 C
e|---------------------------------------------------------------------------|
B|-----------8-------------------8--------------8------------------8---------|
G|------------------------9----------------------------------9---------------|
D|------------------9---------------------------------10---------------------|
A|------7---------------------------------10---------------------------------|
E|---------------------------------------------------------------------------|

                                                G                                        
                                                     Bm
e|---------------------------------------------------------------------------|
B|------------3-----------------3-----------------------3------------------3-|
G|------------------------4-----------------------------------------4--------|
D|------------------5----------------------------------------4---------------|
A|------5--------------------------------------2-----------------------------|
E|---------------------------------------------------------------------------|

************************************

| /   slide up
| \   slide down
| h   hammer-on
| p   pull-off
| ~   vibrato
| +   harmonic
| x   Mute note
| b   Bend
| pb  Pre-bend
| br  Bend release
| pbr Pre-bend release
| brb Bend release bend

************************************
Tap to rate this tab
 
# A B C D E F G H I J K L M N O P Q R S T U V W X Y Z