Song name
# A B C D E F G H I J K L M N O P Q R S T U V W X Y Z

Hoffmaestro And Chraa - Highway Man tab

-------------------------------------------------------------------------------
			     Highway Man - Hoffmaestro & Chraa
-------------------------------------------------------------------------------
Tabbed by: Filip Johnsson
Email: johnsson.filip@hotmail.com

There might be some incorrect parts but I did my best to tab it as close to the 
original version as possible.
If there's any questions dont hesitate to mail me.

Enjoy!

Standard Tuning

Intro x1
Verse x2
Pre Chorus x2
Chrous x1
Verse x2
Pre Chorus x2
Chorus x1
Verse x2
Ending x1

Intro:
       
           Em
e|--------------------| (x8)
B|----0---------0-----|
G|-----0---------0----|
D|------2---------2---|
A|---------0h2--------|
E|-0------------------|


Verse:

           Em
e|--------------------| (x2)
B|----0---------0-----|
G|-----0---------0----|
D|------2---------2---|
A|---------0h2--------|
E|-0------------------|

           C
e|----0---------0-----| (x2)
B|-----1---------1----|
G|------0---------0---|
D|---------0h2--------|
A|-3------------------|
E|--------------------|

           G
e|--------------------| (x2)
B|----0---------0-----|
G|-----0---------0----|
D|------0---------0---|
A|---------0h2--------|
E|-3------------------|

           Bm
e|----2---------2-----| (x2)
B|-----3---------3----|
G|------4---------4---|
D|---------2h4--------|
A|--2-----------------|
E|--------------------|

           Em
e|--------------------| (x4)
B|----0---------0-----|
G|-----0---------0----|
D|------2---------2---|
A|---------0h2--------|
E|-0------------------|       


Pre Chorus:

           C
e|----0---------0-----| (x4)
B|-----1---------1----|
G|------0---------0---|
D|---------0h2--------|
A|-3------------------|
E|--------------------|

           Em
e|--------------------| (x4)
B|----0---------0-----|
G|-----0---------0----|
D|------2---------2---|
A|---------0h2--------|
E|-0------------------|


Chorus:

 
          Em
e|--------------------| (x2)
B|----0---------0-----|
G|-----0---------0----|
D|------2---------2---|
A|---------0h2--------|
E|-0------------------|

           G
e|--------------------| (x2)
B|----0---------0-----|
G|-----0---------0----|
D|------0---------0---|
A|---------0h2--------|
E|-3------------------|

           Bm
e|----2---------2-----| (x2)
B|-----3---------3----|
G|------4---------4---|
D|---------2h4--------|
A|--2-----------------|
E|--------------------|

           Em
e|--------------------| (x4)
B|----0---------0-----|
G|-----0---------0----|
D|------2---------2---|
A|---------0h2--------|
E|-0------------------|

           C
e|----0---------0-----| (x2)
B|-----1---------1----|
G|------0---------0---|
D|---------0h2--------|
A|-3------------------|
E|--------------------|

           Bm
e|----2---------2-----| (x2)
B|-----3---------3----|
G|------4---------4---|
D|---------2h4--------|
A|--2-----------------|
E|--------------------|

           Em
e|--------------------| (x4)
B|----0---------0-----|
G|-----0---------0----|
D|------2---------2---|
A|---------0h2--------|
E|-0------------------|

           G
e|--------------------| (x2)
B|----0---------0-----|
G|-----0---------0----|
D|------0---------0---|
A|---------0h2--------|
E|-3------------------|

           Bm
e|----2---------2-----| (x2)
B|-----3---------3----|
G|------4---------4---|
D|---------2h4--------|
A|--2-----------------|
E|--------------------|

           C
e|----0---------0-----| (x4)
B|-----1---------1----|
G|------0---------0---|
D|---------0h2--------|
A|-3------------------|
E|--------------------|

           Em
e|--------------------| (x4)
B|----0---------0-----|
G|-----0---------0----|
D|------2---------2---|
A|---------0h2--------|
E|-0------------------|


Ending (played very slowly):

           Em
e|----------------------| (x4)
B|----0-----------0-----|
G|-----0-----------0----|
D|------2-----------2---|
A|---------0-0h2--------|
E|-0------------0-------| fading out...

Tap to rate this tab
 
# A B C D E F G H I J K L M N O P Q R S T U V W X Y Z