Song name
# A B C D E F G H I J K L M N O P Q R S T U V W X Y Z

Hoffmaestro And Chraa - Highway Man tab

Hoffmaestro - Highway man
By: Tobias Pahlberg

Here are two versions of how to play the chords, the first without capo and the 
second with a capo on 7:th fret. 
I'm a bit unsure about some parts though.

Live version
No capo

           Em
e|--------------------| (x2)
B|--------------------|
G|----0---------0-----|
D|--------------------|
A|---------0h2--------|
E|-0------------------|

           C
e|--------------------| (x2)
B|--------------------|
G|----0---------0-----|
D|---------0h2--------|
A|-3------------------|
E|--------------------|

           G
e|--------------------| (x2)
B|--------------------|
G|----0---------0-----|
D|--------------------|
A|---------0h2--------|
E|-3------------------|

           Bm
e|--------------------| (x2)
B|--------------------|
G|----4---------4-----|
D|---------2h4--------|
A|-2------------------|
E|--------------------|

           D
e|--------------------| (x2)
B|--------------------|
G|----7---------7-----|
D|---------5h7--------|
A|-5------------------|
E|--------------------|

CD-version
Capo on 7:th fret

           Em
e|--------------------| (x2)
B|----1---------1-----|
G|--------------------|
D|---------0h2--------|
A|-0------------------|
E|--------------------|

           C
e|--------------------| (x2)
B|----1---------1-----|
G|---------0h2--------|
D|-3------------------|
A|--------------------|
E|--------------------|

           G
e|--------------------| (x2)
B|----1---------1-----|
G|--------------------|
D|---------0h2--------|
A|-3------------------|
E|--------------------|

           Bm
e|--------------------| (x2)
B|----0---------0-----|
G|---------0h2--------|
D|-2------------------|
A|--------------------|
E|--------------------|
Tap to rate this tab
 
# A B C D E F G H I J K L M N O P Q R S T U V W X Y Z