Song name
# A B C D E F G H I J K L M N O P Q R S T U V W X Y Z

Hoffmaestro And Chraa - Memories In Blue tab

-------------------------------------------------------------------------------
                             Hoffmaestro - Memories In Blue
-------------------------------------------------------------------------------
This is a guitar lesson on the  from Memories In Blue 

***NOT THE SOLO/LEAD-THINGY***

So, this is my first tab and I just took this part out by ear so
dont expect too much now!

I'm not even sure I got the parts in the same order as to the 
official song. So this tab is merely a tool you can use to 
get a grip on the rhythm and finger picking.

This is a really cool sounding tune though, enjoy!

Tuning: Standard

Chords: Bm, G, A, D

Capo on 2nd

Listend to the song and practice the first part of the intro slowly:
 
e|--------------------------------------------------|
B|---------3-----------3-----------3----------------|
G|-----4-----4-----4-----4-----4-----4-----4-----4--|  x2
D|----4-----4-----4-----4-----4-----4-----4-----4---|
A|--2-----------2-----------2-----------2-----0-----|
E|--------2-----------2-----------2-----------------|

Really try to get the picking and rhythm down before
you move on.





When you get a grip on it, try out the rest:

e|--------------------------------------------------|
B|---------3-----------------------3-----------3----|
G|-----4-----4-----4-----4-----0-----0------0----0--| x2
D|----4-----4-----4-----4-----0-----0------0----0---|
A|--2-----------2-----0-----------------0h2---------|
E|--------2-----------------3-----3-----------3-----|



e|--------------------------------------------------|
B|---------3-----------2-----------3----------------|
G|-----0-----0-----2-----2----4------4-----4-----4--|
D|----0-----0-----2-----2----4------4-----4-----4---|
A|--------------0-----------2-----------2-----0-----|
E|--3-----3-----------0-----------2-----------------|



  
e|---------------------------------1-----------1----|
B|---------3----------2--------3-----3-----3-----3--|
G|-----0-----0-----2----2-----2-----2-----2-----2---|
D|----0-----0-----2----2----0-----0-----0-----0-----|
A|--------------0-----------------------------------|
E|--3-----3----------0------------------------------|




e|---------3----------------|
B|-----3-----3-----3-----3--|
G|----2-----2-----2-----2---|
D|--0-----0-----0-----------|  Back to top
A|--------------------4-----|
E|--------------------------|
Tap to rate this tab
# A B C D E F G H I J K L M N O P Q R S T U V W X Y Z