Song name
# A B C D E F G H I J K L M N O P Q R S T U V W X Y Z

Hole - Dicknail tab

----------------------------------------------------------------------------
			     DICKNAIL - Hole
----------------------------------------------------------------------------
Tabbed by: illy93
Tuning: Standard


VERSE:
e|-----------------|
B|-----------------|
G|-----------------|
D|-----------------|
A|--444/5-444/5-4--|
E|--222/3-222/3-2--|


CHORUS:
e|-----------------------------------------------|
B|-----------------------------------------------|
G|-----------------------------------------------|
D|--4b-xx-xxxxx-4b--------4b-xx-xxxxx-4b---------|
A|--2b-xx-xxxxx-2b-22-222-2b-xx-xxxxx-2b-55-555--|
E|-----------------00-000----------------33-333--|

e|---------------------------------------------------|
B|---------------------------------------------------|
G|-----------------------------------------------7b--|
D|--4b-xx-xxxxx-4b--------4b-xx-xxxxx-4b---------7b--|
A|--2b-xx-xxxxx-2b-22-222-2b-xx-xxxxx-2b-55-555--5b--|
E|-----------------00-000----------------33-333------|


POST-CHORUS:
e|------------------------------|
B|------------------------------|
G|------------------------------|
D|---------------99999-77777-9--|
A|--444/5-444/7--77777-55555-7--|
E|--222/3-222/5-----------------|


OUTRO:
e|--------------------------------------------------------------------|
B|--------------------------------------------------------------------|
G|--------------------------444/5-444/5-------------------------------|
D|--------------444/5-444/5-222/3-222/3-///slide up the neck/////--4--|
A|--444/5-444/5-222/3-222/3----------------------------------------4--|
E|--222/3-222/3----------------------------------------------------2--|

============================================================================

STRUCTURE:
VERSE RIFF  (x10)
CHORUS RIFF (x 1)
POST CHORUS (x 4)
VERSE RIFF  (x 4)
CHORUS RIFF (x 1)
VERSE RIFF  (x 7)
OUTRO


KEY:
/ = slide up
b = bend (half)
x = Mute note

============================================================================
Tap to rate this tab
# A B C D E F G H I J K L M N O P Q R S T U V W X Y Z