Song name
# A B C D E F G H I J K L M N O P Q R S T U V W X Y Z

Hole - Mrs Jones tab

HOLE           Mrs Jones (bass tab)
transcribed by geniefur (grrrl_grrrms@hotmail.com)

Intro Riff:
E -0-3-0-3-3---------|-0-3-0-3-3----------

Verse:
A -12-12-12-12-------|-12-12-12-12--------

A -11-11-11-11-------|-11-11-11-11--------

A -10-10-10-10-------|-10-10-10-10--------

A -9-9-9-9-----------|-9-9-9-9-9----------

Chorus:
A -5-5-5-5---5-------|-7/8-7--------------

Repeat Verse:
A -12-12-12-12-------|-12-12-12-12--------

A -11-11-11-11-------|-11-11-11-11--------

A -10-10-10-10-------|-10-10-10-10--------

A -9-9-9-9-----------|-9-9-9-9-9----------

Bridge:
A -12-12-12-12-12----|-10-10-10--10-10----

A -5-5-5-5-5---------|-7-7-7-7-7----------

E -6--6-6-6-6--------|--------------------

repeat verse and chorus

E -0-3-0-3-3---------|-0-3-0-3-3----------

A -slide down--13---------|------------

* note: the live version varies totally from the album version and if this
sounds different its cuz it's a bit of both. heart geniefur.
Tap to rate this tab
# A B C D E F G H I J K L M N O P Q R S T U V W X Y Z