Song name
# A B C D E F G H I J K L M N O P Q R S T U V W X Y Z

Hole - Drag tab

PART 1 (intro)
E -------------------------------------------0-0-0----|
B --------------------------------------------------0-|
G ------------------------------------------------0---|
D -4/8-8-9-9\4-----8---9-4-----8---9-4-----8----------|
A -4/8-8-9-9\4----8---9--4----8---9--4----8-----------|
E -2/6-6-7-7\2---6---7---2---6---7---2---6------------|


PART 2 (ah, ah, ah...)
E -------0-0-----------|
B -----------0---------|
G ---------------------|
D -8-9-4---------8-9-4-|
A -8-9-4---------8-9-4-|
E -6-7-2---------6-7-2-|


PART 3 (you're so sexy...)
E -------|
B -------|
G -------|
D -4-8-9-|
A -4-8-9-|
E -2-6-7-|


PART 4 (riff after verse)
E ----------------------------------------|
B ----------------------------------------|
G ----------------------------------------|
D -8-x-4-7-x-4-9-8-8/9\8--9-8-8/9\8-8/9\8-|
A -8-x-4-7-x-4----------------------------|
E -6-x-2-5-x-2----------------------------|


PART 5 (all alone in the city...)
E --------------|
B --------------|
G --------------|
D -11-7-x-6-x-4-|
A -11-7-x-6-x-4-|
E -9--5-x-4-x-2-|


PART 6 (played during the last "drag me, oh, drag me down to you")
E ------------------------|
B ------------------------|
G ------------------------|
D ----11------7---6---4---|
A --11--11---7---6---4-4--|
E -9------9-5---4---2---2-|


PART 7 (i pity everyone...)
E -----------------------------------------|
B -----------------------------------------|
G -10-6-x-5-x-3---6-5-10-10----10----6-5-3-|
D -11-7-x-6-x-4---7-6-11----------11-7-6-4-|
A -11-7-x-6-x-4---7-6-11----11-------7-6-4-|
E -9--5-x-4-x-2---5-4--9-------------5-4-2-|


During the "drive all the way to malibu..." part, play part five.
When Courtney starts singing the last "i pity everyone tonight...", play:
E ---------------------|
B ---------------------|
G ---------------------|
D -11-7-6-4-9-11-7-6-4-|
A -11-7-6-4-9-11-7-6-4-|
E -9--5-4-2-7-9--5-4-2-|
Tap to rate this tab
 
# A B C D E F G H I J K L M N O P Q R S T U V W X Y Z