Song name
# A B C D E F G H I J K L M N O P Q R S T U V W X Y Z

Hole - Skinny Little Bitch tab

Artist: Hole
Song: Skinny Little Bitch
Album: Nobody's Daughter (2010)
Tuning: D (DGCFAd)

This is Skinny Little Bitch off Hole's brand new album, Nobody's Daughter. It's very 
to learn and play, but it sounds really wicked! This is how I play it and I think it's 
If you want to make any remarks, please write them down in the comments section. Enjoy!

Main riff(0:02 - 0:32)

d----------------------------------|
A----------------------------------|
F----------------------------------|
C---6---6-4-6--6-4-6--6-4-6/999----| x8
G---6---6-4-6--6-4-6--6-4-6/999----|
D---4---4-4-4--4-4-4--4-4-4/777----|

Chorus(0:32 - 0:47)

d------------------------------------|
A------------------------------------|
F------------------------------------|
C---6-6--44--44/101010--4/666--------| x3     then
G---6-6--44--44/101010--4/666--------|
D---4-4--22--22/8-8-8---2/444--------|

d------------------------------------|
A------------------------------------|
F------------------------------------|
C---4--44444444444444----------------|
G---4--44444444444444----------------|
D---2--22222222222222----------------|

Main riff(0:48 - 0:54)

d------------------------------------------------------|
A------------------------------------------------------|
F------------------------------------------------------|
C---6---6-4-6--6-4-6--6-4-6/999----6---6-4-6--6-4-6*---|
G---6---6-4-6--6-4-6--6-4-6/999----6---6-4-6--6-4-6*---|
D---4---4-4-4--4-4-4--4-4-4/777----4---4-4-4--4-4-4*---|

Bass fill(0:55 - 1:10) - listen to the song for the timing!

d----------------------------------------------------------|
A---7~~~----------------------7~~~-------------------------|
F----------------------------------------------------------|
C-----------------------------------------------------999--|
G-----------------------------------------------------999--|
D-----------------------------------------------------777--|

Main riff(1:11 - 1:25)

d----------------------------------|
A----------------------------------|
F----------------------------------|
C---6---6-4-6--6-4-6--6-4-6/999----| x4
G---6---6-4-6--6-4-6--6-4-6/999----|
D---4---4-4-4--4-4-4--4-4-4/777----|

Chorus(1:26 - 1:41)

d------------------------------------|
A------------------------------------|
F------------------------------------|
C---6-6--44--44/101010--4/666--------| x3     then
G---6-6--44--44/101010--4/666--------|
D---4-4--22--22/8-8-8---2/444--------|

d------------------------------------|
A------------------------------------|
F------------------------------------|
C---4--44444444444444----------------|
G---4--44444444444444----------------|
D---2--22222222222222----------------|

Main riff(1:41 - 1:48)

d----------------------------------|
A----------------------------------|
F----------------------------------|
C---6---6-4-6--6-4-6--6-4-6/999----| x2
G---6---6-4-6--6-4-6--6-4-6/999----|
D---4---4-4-4--4-4-4--4-4-4/777----|

Bridge(1:49 - 2:03)

Rhythm guitar plays:
d-------------------------------------------|
A-------------------------------------------|
F-------------------------------------------|
C---4-----4/6--6-----4-----4/6--6----9------|
G---4x16--4/6--6x16--4x16--4/6--6x8--9x8----|
D---2-----2/4--4-----2-----2/4--4----7------|

Lead guitar plays:
d--------------------------------------------------------------------------|
A---------------------14141414-------------------14/16-19b1619b161919b16~~~|
F---11x16-11/13-13x12-13131313--11x16-11/13-13x8---------------------------|
C--------------------------------------------------------------------------|
G--------------------------------------------------------------------------|
D--------------------------------------------------------------------------|

Chorus(2:04 - 2:18)

d------------------------------------|
A------------------------------------|
F------------------------------------|
C---6-6--44--44/101010--4/666--------| x3     then
G---6-6--44--44/101010--4/666--------|
D---4-4--22--22/8-8-8---2/444--------|

d------------------------------------|
A------------------------------------|
F------------------------------------|
C---4--44444444444444----------------|
G---4--44444444444444----------------|
D---2--22222222222222----------------|

Main riff(2:19 - 3:02) - there is a gradual raise in tempo, listen to the song to get it right!

d----------------------------------|
A----------------------------------|
F----------------------------------|
C---6---6-4-6--6-4-6--6-4-6/999----| x13
G---6---6-4-6--6-4-6--6-4-6/999----|
D---4---4-4-4--4-4-4--4-4-4/777----|

Ending(3:02 - 3:08) - bend the whole chord, release it slowly and finally let it ring 
slide out!

d---------------------------------|
A---------------------------------|
F---------------------------------|
C---6b---6\-----------------------|
G---6b---6\-----------------------|
D---4b---4\-----------------------|

Tablature Legend
b   - bend
~   - vibrato
*   - mute strings
/\  - slide into or out of
x   - the number of times you play the note/riff
Tap to rate this tab
# A B C D E F G H I J K L M N O P Q R S T U V W X Y Z