Song name
# A B C D E F G H I J K L M N O P Q R S T U V W X Y Z

Hole - Honey tab

----------------------------------------------------------------------------
			     Honey - Hole
-----------------------------------------------------------------------------
Tabbed by: J.T. Huntley II


Intro and Verse

e|--333333-33333-000000-3----------------------------------------------------|
B|--333333-33333-111111-3----------------------------------------------------|
G|--000000-00000-000000-0----------------------------------------------------|
D|--000000-22222-222222-0----------------------------------------------------|
A|--222222-33333-000000-2----------------------------------------------------|
E|--333333--------------3----------------------------------------------------|

Chorus

e|--33333-2-2-3333-33333-3-3-2222--------------------------------------------|
B|--33333-3-3-3333-33333-3-3-3333--------------------------------------------|
G|--00000-2-2-0000-00000-0-0-2222---X2---------------------------------------|
D|--00000-0-0-xxxx-00000-x-x-0000--------------------------------------------|
A|--xxxxx-----3333-xxxxx-2-2-------------------------------------------------|
E|--33333----------33333-----------------------------------------------------|

e|--00000-333333-22222-000000-00000-333333-22222-000000----------------------|
B|--00000-333333-33333-111111-00000-333333-33333-333333----------------------|
G|--11111-000000-22222-000000-11111-000000-22222-000000----------------------|
D|--22222-000000-00000-222222-22222-000000-00000-222222----------------------|
A|--22222-222222-------000000-22222-222222-------333333----------------------|
E|--00000-333333--------------00000-333333-----------------------------------|


e|--0000000-0-0-2222222------------------------------------------------------|
B|--0000000-3-3-3333333------------------------------------------------------|
G|--1111111-0-0-2222222------------------------------------------------------|
D|--2222222-0-0-0000000------------------------------------------------------|
A|--2222222-2-2--------------------------------------------------------------|
E|--0000000-3-3--------------------------------------------------------------|

Outro

e|--00000-333333-22222-000000-00000-333333-22222-000000----------------------|
B|--00000-333333-33333-111111-00000-333333-33333-333333----------------------|
G|--11111-000000-22222-000000-11111-000000-22222-000000----------------------|
D|--22222-000000-00000-222222-22222-000000-00000-222222----------------------|
A|--22222-222222-------000000-22222-222222-------333333----------------------|
E|--00000-333333--------------00000-333333-----------------------------------|
e|---------------------------------------------------------------------------|

************************************

| /   slide up
| \   slide down
| h   hammer-on
| p   pull-off
| ~   vibrato
| +   harmonic
| x   Mute note
| b   Bend
| pb  Pre-bend
| br  Bend release
| pbr Pre-bend release
| brb Bend release bend

************************************
Tap to rate this tab
 
# A B C D E F G H I J K L M N O P Q R S T U V W X Y Z