Song name
# A B C D E F G H I J K L M N O P Q R S T U V W X Y Z

Hole - Pretty On The Inside tab

**********************************************************************************
This is really easy to play. you just repeat this part through out the whole song.
**********************************************************************************


(Slut-kiss girls won't you)
e------------|
B------------|
G------------|
D--7-7-7-7-7-|
A--5-5-5-5-5-|
E--0-0-0-0-0-|

(promise her smack is she)
-----------|
-----------|
-----------|
-8-8-8-8-8-|
-6-6-6-6-6-|
-0-0-0-0-0-|

(pretty on the inside is she)
-----------|
-----------|
-----------|
-9-9-9-9-9-|
-7-7-7-7-7-|
-0-0-0-0-0-|

(pretty from the back)
----------------|
----------------|
----------------|
-10-10-10-10-10-|
-8--8--8--8--8--|
-0--0--0--0--0--|

Lyrics:

Slut-kiss girls won't you promise her smack
Is she pretty on the inside
Is she pretty from the back!
Slut-kiss girl won't you water her back
Is she pretty on the inside
Baby pretty from the back!
Slut-kiss girl we'll have some rot black strap
Is she ugly on the inside
Baby ugly ugly from the back!
My pretty power my pretty power
My pretty power my ugly
Slut-kiss girls won't you promise her smack
Is she pretty on the inside
Is she ugly! ugly! ugly! ugly! ugly! ugly! ugly! ugly! ugly!
Tap to rate this tab
 
# A B C D E F G H I J K L M N O P Q R S T U V W X Y Z