Hole - How Dirty Girls Get Clean chords

-------------------------------------------------------------------------------
		HOW DIRTY GIRLS GET CLEAN  Hole
-------------------------------------------------------------------------------

Tabbed by:Carrie Davies
Email:quietiamsleeping@yahoo.com

Tuning:standard

Rhythm Intro
e|-1---3-------|
B|-3---3-------|
G|-2---0---2---|
D|-0---0---2---|
A|---------0---|
E|---------0---|

e|-------------|
B|-------------|
G|-3-----------|
D|-3---3---5---|
A|-1---3---5---|
E|-----1---3---|

e|-------------|
B|-------------|
G|-----5-------|
D|-3---5---7---|
A|-3---3---7---|
E|-1-------5---|
These r just the chords,Ill do the whole thing out later.If anyone has the vocal melody 
appreciate it if u would e-mail it to me.Cheers!
Tap to rate this tab
 
# A B C D E F G H I J K L M N O P Q R S T U V W X Y Z