Song name
# A B C D E F G H I J K L M N O P Q R S T U V W X Y Z

Hole - Whose Porno You Burn Black tab

Whose Porno You Burn
Hole
1995

"Starts out like magic.."

e----------------------------------------------------------------|
B----------------------------------------------------------------|
G----------------------------------------------------------0-----|
D---0--0--0--0--0--0--0--0--0--0--0--0--0--0--0--0--0--0--0--0-0-|
A-0--0--0--0--0--0--0--0--0--0--0--0--0--0--0--0--0--0--0-0-0--0-|
E-2-3-3-2-2-3-2-3-2-2-3-3-2-2-3-3-2-2-3-2-2-3-3-2-2-3-3-3-2-2--3-|

Distortion pedal on at

"And blood and feathers, they are every where..."
e--
B--
G--
D-0
A-0
E-3

"You want retreat, filthy and deep...."

e----------------------|
B----------------------|
G----------------------|
D-3-3-3-3-5-5-5-5-5-5--|
A-0-0-0-0-0-0-0-0-0-0--|
E-2-2-2-2-3-3-3-3-3-3--|


"It's all whores, it's all pain...."
e-----------------------------|
B-----------------------------|
G-----------------------------|
D-10-10-10--12-12-12-12-12-12-|
A--0-0-0-0--0-0-0-0-0-0-0---0-|
E--9-9-9-9--10-10-10-10-10-10-|

"I want it now she said, I want it now she said.."

e--------------------------|
B--------------------------|
G--------------------------|
D-0-0-0-0-0-0-0-0-0-0------|
A-0-0-0-0-0-0-0-0-0-0------|
E-2-2-2-2-3-3-3-3-3-3------|

Chorus pedal on and played clean on

"Come back, come back..."

e---2-2-3-3-3-2---|
B---0-0-0-0-0-0---|
G---0-0-0-0-0-0---|
D---0-0-0-0-0-0-0-|
A---0-0-0-0-0-0-0-|
E---2-2-3-3-3-2-3-|

Distortion on and end on

e--
B--
G--
D-0
A-0
E-3
Tap to rate this tab
 
# A B C D E F G H I J K L M N O P Q R S T U V W X Y Z