Song name
# A B C D E F G H I J K L M N O P Q R S T U V W X Y Z

Hole - Just Do It Black Day tab

Hole
Just Do It/Black Day
1995

Intro [Played clean twice]:

e---------------------------------|
B---------------------------------|
G---------------------------------|
D-2-2-2-2-2-2-2-2-----------------|
A-2-2-2-2-2-2-2-2-0-0-0-0-0-0-0-0-|
E-----------------2-2-2-2-3-3-3-3-|

"Just do it baby..." [Distortion on]
e--------------------------------------|
B--------------------------------------|
G--------------------------------------|
D-2-2-2-2-2----------------------------|
A-2-2-2-2-2-0-0-0-0-0-0-0-0-0-0--------|
E-----------2-2-2-3-3-3-5-5-5-5--------|

"Yeah, yeah, yeah...."

e----------------------------------------|
B----------------------------------------|
G-9-9-9-9-9-0-11-11-11-11-11-11-11-12-12-|
D-0-0-0-0-0-0-0-0-0-0-0-0-0--0--0--0--0--|
A-7-7-7-7-7-7-9-9-9-9-9-9-9--10-10-10-10-|
E----------------------------------------|

End on

"Black day..."
e--
B--
G--
D-2
A-2
E--
Tap to rate this tab
 
# A B C D E F G H I J K L M N O P Q R S T U V W X Y Z