Hole - Violet tab

-------------------------------------------------------------------------------
			     MISS WORLD - Hole
-------------------------------------------------------------------------------
Tabbed by:Carrie	
Email:quietiamsleeping@yahoo.com

 Gt1 acous
e|-3---3-------------------------------|
B|-3-3-------3-------3---------3-------|
G|-0-----2-2---2---2-------------------|
D|-0-----0-------3-----3-0---2---------|
A|-2-----------------------3-----3-0---|
E|-3-----------------------------------|

 Gt1
e|-3------------------------------------------|
B|-3---3---------3---------3----------3---3---|
G|-0-0-----0-2-2---2-0-2----------------------|(4th time only play upto *)
D|-0-----0---0---------3-3---3-3----2---------|
A|-2-----------------------------3*-----3-----|
E|-3------------------------------------------|
 I am the girl you know cant look you in the eye
 I am the girl you know so sick i cannot try
 I am the girl you know cant look you in the eye
 I am the girl you know i lie and lie and lie

 Gt2 elec
e|---------------------------------------------------------------------|
B|-----3/5-----5/7-----7-7-----7-----7\5-----5\3-----3-3-----3---------|
G|-----0-------0-------0-0-----0-----0-------0-------0-0-----0---------|
D|-0-0-----0-0-----0-0-----0-0---6-6-----4-4-----2-2-----2-2-----------|
A|-2-2-----4-4-----6-6-----6-6---7-7-----5-5-----3-3-----3-3---0-3-----|
E|-3-3-----5-5-----7-7-----7-7-------------------------------------3---|
 |Gt1 (comes in at the end of gt2s 1st time)
e|-3-3-3-*-----3/5-----5/7-----7-7-----7-----7\5-----5\3-----3-3-----3-3-3---|play
B|-3-3-3-*-----3/5-----5/7-----7-7-----7-----7\5-----5\3-----3-3-----3-3-3---|upto 
G|-0-0-0-*-----0-------0-------0-0-----0-----0-------0-------0-0-----0-0-0---|*1st 
D|-------*-0-0-----0-0-----0-0-----0-0---6-6-----4-4-----2-2-----2-2---------|time 
A|-------*-2-2-----4-4-----6-6-----6-6---7-7-----5-5-----3-3-----3-3---------|only
E|-------*-3-3-----5-5-----7-7-----7-7---------------------------------------|
 Im miss world somebody kill me
 Kill me pills noone cares me friends
 My friends
 Im miss world watch me break and
 Watch me burn noone is listening my friends
 Yeah

 Gt1
e|-----3/5-----5/7-----7-7-----7-----7\5-----5\3-----3-3-----3-3-3---|
B|-----3/5-----5/7-----7-7-----7-----7\5-----5\3-----3-3-----3-3-3---|
G|-----0-------0-------0-0-----0-----0-------0-------0-0-----0-0-0---|
D|-0-0-----0-0-----0-0-----0-0---6-6-----4-4-----2-2-----2-2---------|
A|-2-2-----4-4-----6-6-----6-6---7-7-----5-5-----3-3-----3-3---------|
E|-3-3-----5-5-----7-7-----7-7---------------------------------------|
 |Gt2
e|-----*---------------------------------------------------------------------|play upto
B|-----*---------------------------------11-11-11-11\9-9-9\7-7-7-7-7-7-7-7---|*1st time
G|-----*-4-4-4/6-6-6-6/8-8-8-8-8-8-8-8-8-11-11-11-11\9-9-9\7-7-7-7-7-7-7-7---|only
D|-----*-5-5-5/7-7-7-7/9-9-9-9-9-9-9-9-9-11-11-11-11\9-9-9\7-7-7-7-7-7-7-7---|
A|-----*-5-5-5/7-7-7-7/9-9-9-9-9-9-9-9-9-9--9--9---9\7-7-7\5-5-5-5-5-5-5-5---|
E|-12\-*-3-3-3/5-5-5-5/7-7-7-7-7-7-7-7-7-------------------------------------|
 Ill make my bed ill lie in it
 Ill make my bed ill die in it
 
 Gt1
e|-----3/5-----5/7-----7-7-----7-----7\5-----5\3-----3-3-----3-3-3---|
B|-----3/5-----5/7-----7-7-----7-----7\5-----5\3-----3-3-----3-3-3---|
G|-----0-------0-------0-0-----0-----0-------0-------0-0-----0-0-0---|
D|-0-0-----0-0-----0-0-----0-0---6-6-----4-4-----2-2-----2-2---------|
A|-2-2-----4-4-----6-6-----6-6---7-7-----5-5-----3-3-----3-3---------|
E|-3-3-----5-5-----7-7-----7-7---------------------------------------|
 |Gt2 elec
e|---------------------------------------------------------------------|
B|-----3/5-----5/7-----7-7-----7-----7\5-----5\3-----3-3-----3---------|
G|-----0-------0-------0-0-----0-----0-------0-------0-0-----0---------|
D|-0-0-----0-0-----0-0-----0-0---6-6-----4-4-----2-2-----2-2-----------|
A|-2-2-----4-4-----6-6-----6-6---7-7-----5-5-----3-3-----3-3---0-3-----|
E|-3-3-----5-5-----7-7-----7-7-------------------------------------3---|
 Cute girls watch when i eat ether
 Suck me under maybe forever my friends
 Yeah

 Gt1
e|-----3/5-----5/7-----7-7-----7-----7\5-----5\3-----3-3-----3-3-3---|
B|-----3/5-----5/7-----7-7-----7-----7\5-----5\3-----3-3-----3-3-3---|
G|-----0-------0-------0-0-----0-----0-------0-------0-0-----0-0-0---|
D|-0-0-----0-0-----0-0-----0-0---6-6-----4-4-----2-2-----2-2---------|
A|-2-2-----4-4-----6-6-----6-6---7-7-----5-5-----3-3-----3-3---------|
E|-3-3-----5-5-----7-7-----7-7---------------------------------------|
 |Gt2
e|-----*---------------------------------------------------------------------|play upto
B|-----*---------------------------------11-11-11-11\9-9-9\7-7-7-7-7-7-7-7---|*1st time
G|-----*-4-4-4/6-6-6-6/8-8-8-8-8-8-8-8-8-11-11-11-11\9-9-9\7-7-7-7-7-7-7-7---|only
D|-----*-5-5-5/7-7-7-7/9-9-9-9-9-9-9-9-9-11-11-11-11\9-9-9\7-7-7-7-7-7-7-7---|
A|-----*-5-5-5/7-7-7-7/9-9-9-9-9-9-9-9-9-9--9--9---9\7-7-7\5-5-5-5-5-5-5-5---|
E|-12\-*-3-3-3/5-5-5-5/7-7-7-7-7-7-7-7-7-------------------------------------|
 Ill make my bed ill lie in it
 Ill make my bed ill die in it
 Ill make my bed ill die in it
 Ill make my bed ill cry in it
 Ill make my bed ill lie in it
 Ill make my bed ill cry in it
 Ill make my bed ill die in it

 Gt1
e|-----3/5-----5/7-----7-7-----7-----7\5-----5\3-----3-3-3-3-3-3-3-3-----|
B|-----3/5-----5/7-----7-7-----7-----7\5-----5\3-----3-3-3-3-3-3-3-3-----|
G|-----0-------0-------0-0-----0-----0-------0-------0-0-0-0-0-0-0-0-----|
D|-0-0-----0-0-----0-0-----0-0---6-6-----4-4-----2-2-----------------0---|
A|-2-2-----4-4-----6-6-----6-6---7-7-----5-5-----3-3-----------------2---|
E|-3-3-----5-5-----7-7-----7-7---------------------------------------3---|
 |Gt2
e|-------------------------------------------------------------------------|
B|---------------------------------11-11-11-11\9-9-9\7-7-7-7-7-7-7-7-7-----|
G|-4-4-4/6-6-6-6/8-8-8-8-8-8-8-8-8-11-11-11-11\9-9-9\7-7-7-7-7-7-7-7-7-4---|
D|-5-5-5/7-7-7-7/9-9-9-9-9-9-9-9-9-11-11-11-11\9-9-9\7-7-7-7-7-7-7-7-7-5---|
A|-5-5-5/7-7-7-7/9-9-9-9-9-9-9-9-9-9--9--9---9\7-7-7\5-5-5-5-5-5-5-5-5-5---|
E|-3-3-3/5-5-5-5/7-7-7-7-7-7-7-7-7-------------------------------------3---|
 Ill make my bed ill lie in it my friends

 Gt1
e|-3---------------------------------|
B|-3---3---------3---------3---------|
G|-0-0-----0-2-2---2-0-2-------------|
D|-0-----0---0---------3-3---3-3-----|
A|-2-----------------------------3---|
E|-3---------------------------------|
I am the girl you know cant look you in the eye


PLEASE RATE!
***********************************
| /   slide up
| \   slide down
***********************************
Tap to rate this tab
 
# A B C D E F G H I J K L M N O P Q R S T U V W X Y Z