Song name
# A B C D E F G H I J K L M N O P Q R S T U V W X Y Z

Hole - Jennifers Body tab

                   Jennifer's Body by Hole-Guitar Tab
     Eh first tab EVER so sorry if its not 40348% accurate

Intro-Clean-Played four(4) Times
e| ---------------------------------------------------------------|
B| ---------------------------------------------------------------|
G| ---------------------------------------------------------------|
B| --7--7--7/10-10-10-10------------------------------------------|
A| --6--6--6/-9--9--9--9---10-10-10/-7777-------------------------|
E| --0--0--0/-0--0--0--0---9--9--9/--6666-------------------------|

Verse-Clean-(Well I Know It...) Also played four times.
e| ---------------------------------------------------------------|
B| ---------------------------------------------------------------|
G| ---------------------------------------------------------------|
B| --7--7--7/-8-/10-10-10-10--------------------------------------|
A| --6--6--6/-9/--9--9--9--9---10-10-10/-77777--------------------|
E| --0--0--0/-9/--0--0--0--0----9--9--9/-66666--------------------|

Chorus- (Its Bettering You Its Bettering Me)w/ Distortion
e| ---------------------------------------------------------------|
B| ---------------------------------------------------------------|
G| ---9--9--9--9/-12--12--12--12----------------------------------|
B| ---9--9--9--9/-12--12--12--12---12--12--12/-9--9--9--9--9------|
A| ---7--7--7--7/-10--10--10--10---12--12--12/-9--9--9--9--9------|
E| --------------------------------10--10--10/-7--7--7--7--7------|

Ending of Chorus-(Myself!!!!!!)-Distortion- Basically going back to the verse- Played Twice
e| ---------------------------------------------------------------|
B| ---------------------------------------------------------------|
G| ---------------------------------------------------------------|
B| --7--7--7/-8-/10-10-10-10--------------------------------------|
A| --6--6--6/-9/--9--9--9--9---10-10-10/-77777--------------------|
E| --0--0--0/-9/--0--0--0--0----9--9--9/-66666--------------------|

Bridge-(Found pieces of Jennifer's Body)- Played 3 Times
e| ---------------------------------------------------------------|
B| ---------------------------------------------------------------|
G| ----------------------------------7--7--7--7--2--2--2--2-------|
B| --2~---9--9--9--9-----5--5--5--5--7--7--7--7--2--2--2--2-------|
A| --2~---9--9--9--9-----5--5--5--5--5--5--5--5--0--0--0--0-------|
E| --0~---7--7--7--7--0--3--3--3--3-------------------------------|

Part 2 of The Bridge-(Just Relax Just Relax Just Go To Sleep)- Clean
e| ---------------------------------------------------------------|
B| ---------------------------------------------------------------|
G| ---------------------------------------------------------------|
B| --9-9-9~--5-5-5~--7-7-7~---------------------------------------|
A| --7-7-7~--3-3-3~--5-5-5~-7-7-7~--------------------------------|
E| -------------------------5-5-5~--------------------------------|

Ending
e| ---------------------------------------------------------------|
B| --------------------------------- Sleep------------------------|
G| ----------------------------------7~---------------------------|
B| --9--9--9---5--5--5---------------7~---------------------------|
A| --9--9--9---5--5--5---------------5~---------------------------|
E| --7--7--7---3--3--3--------------------------------------------|

e| ---------------------------------------------------------------|
B| --------------------------------- Now--------------------------|
G| ----------------------------------7~---------------------------|
B| --9--9--9---5--5--5---------------7~---------------------------|
A| --9--9--9---5--5--5---------------5~---------------------------|
E| --7--7--7---3--3--3--------------------------------------------|

Thats the tab. The song consist of
Intro
Verse
Chorus
End Of Chorus
Bridge
Play Intro Once More
Verse
Chorus
End Of Chorus
Bridge
Ending

  I made this tab because all of the tabs on here are either wrong or they dont show the 
whole song. So here ya go. Tabbed by Michelle!
Tap to rate this tab
 
# A B C D E F G H I J K L M N O P Q R S T U V W X Y Z