Song name
# A B C D E F G H I J K L M N O P Q R S T U V W X Y Z

Hole - Starbelly tab

-----------------------------------------------------------------------------
			     STARBELLY by Hole
-----------------------------------------------------------------------------

This is mostly a noise track with random picking and sampling. Clips from Fleetwood
Mac's "Rhiannon" are played and the song ends with a cassette recording of "Best Sunday
Dress" by The Pagan Babies, a band formed by Courtney Love and Kat Bjelland in the 
mid-1980s. In other words, there's not a whole lot to tab here; the intro riff, however, is just
about identical to Neil Young's "Cinnamon Girl", so here's a tab for that.

Tuning: Standard

Play clean once, then distorted through the rest of the intro.


e|---------------------------------------------|
B|---------------------------------------------|
G|--5--7-7-7-7--7---5-4-2----------------------|
D|--5--7-7-7-7--7---5-4-2-3-5-5-5--------------|
A|--3--5-5-5-5--5---3-2-0-3-5-5-5--------------|
E|------------------------1-3-3-3--------------|
Tap to rate this tab
 
# A B C D E F G H I J K L M N O P Q R S T U V W X Y Z