Song name
# A B C D E F G H I J K L M N O P Q R S T U V W X Y Z

Hole - She Walks On Me tab

-------------------------------------------------------------------------------
			     She Walks On Me by Hole
-------------------------------------------------------------------------------

Signature punk track from Live Through This. Power chords, power chords, power 
chords (and a hammer-on).

Tabbed by: Scott H.

Tuning: Standard

"h" = hammer on
"b" = string bend


INTRO

Riff A:

e|-----------------------|
B|-----------------------|
G|-----------7b-7b-7b----|
D|-----------------------|
A|--7h9-9-9-9------------|
E|-----------------------|


(Play Riff A three times, then...)


Riff B:

e|-999-10-10-10-11-11-11-12-12-12-13-13-13-14-14-14-15-15-15-16-16-16--------|
B|---------------------------------------------------------------------------|
G|---------------------------------------------------------------------------|
D|---------------------------------------------------------------------------|
A|---------------------------------------------------------------------------|
E|---------------------------------------------------------------------------|

(Play Riff B quickly, and getting progressively faster, then...)


Riff C (main riff):

e|-------------------------------|
B|-------------------------------|
G|------9999-8888--4444----------|
D|--777-9999-8888--4444----------|
A|--777-7777-6666--2222----------|
E|--555--------------------------|


Riff C
    Geeks do not have pedigrees
    Or perfect punk-rock resumes
    Or anorexic magazines
    It smells like girl, it smells like girl

Riff C
    She walks over me
    She walks over me

Riff C
    Hold you close like we both died
    My ever-pressing suicide
    My stupid fuck
    My blushing bride
    Oh, tear my heart out
    Tear my heart out

Riff C
    She walks over me
    She walks over me


Riff D:

e|----------------------|
B|----------------------|
G|----------------------|
D|--777--10-------------|
A|--777--10-------------|
E|--555---8-------------|

(When playing Riff D, hit 5/7/7 hard and let 8/10/10 ring)

Riff D
    I shut my mouth with you for a rag
    Gotta use the rest of you for a gag
    I shut my mouth with you for a rag
    Gotta use the rest of you


(Resume Riff C)


Riff C
    Kitty, kitty, please come here
    God, don't you touch me, don't you dare
    We look the same
    We talk the same
    We are the same
    We are the same

Riff C 
    She walks over me
    She walks over me

Riff D
    I shut my mouth with you for a rag
    Gotta use the rest of you for a gag
    I shut my mouth with you for a rag
    Gotta use the rest of you


(Play intro Riffs A and B again)


Riff C
    Now you see she walks the same
    And now you see she talks the same
    You never know what you will get
    You never know what you'll forget

Riff C
    She walks over me
    She walks over me
    She walks
Tap to rate this tab
 
# A B C D E F G H I J K L M N O P Q R S T U V W X Y Z