Song name
# A B C D E F G H I J K L M N O P Q R S T U V W X Y Z

Hole - Garbage Man chords

Highlighted       Show chord diagrams
-------------------------------------------------------------------------------
			     Garbadge Man by Hole
-------------------------------------------------------------------------------

This is a super simple song to play, same chords used "Violet", actually, just a
different melody and progression (and they tack on the E minor at the end). Some 
palm-mutes are
necessary and sliding, but it's a good beginner's song and it sounds amazing, especially 
combined with Courtney's lyrics and vocals here.

Tabbed by: Scott H.

"/" = slide
"x" = string mute

Tuning: Standard


Riff A:

e|--------------------------------------|
B|--------------------------------------|
G|-7/999999/5555------------------------|
D|-7/999999/5555-55555-22---------------|
A|-5/777777/3333-55555-22---------------|
E|---------------33333-00---------------|


Riff A
    She tears the hole up even wider

Riff A
    Lets all the darkness up inside her

Riff A
    Holy whore, yeah, yeah you're mine

Riff A
    Your everything is mine


Riff B:

e|----------------------------|
B|----------------------------|
G|-7/999999/5xxxxxx-----------|
D|-7/999999/5xxxxxx-----------|
A|-5/777777/3xxxxxx-----------|
E|----------------------------|


Riff B
    Without, without a doubt

Riff B
    Without, without a doubt

Riff B
    Hey, where the fuck were you when my lights went out?

**(Resume playing Riff A when she sings "out")

Riff A
    Yeah, you don't want to look at it now

Riff A
    Yeah, you don't want to look at it, whoa

Riff B
    Without, without a doubt

Riff B
    Come on and let me out

Riff B
    Hey, where the fuck were you when my lights went out?

**(Again, resume playing Riff A when she sings "out")

Riff A
    Yeah, you don't want to look at it now

Riff A
    Yeah, you don't want to look at me

Riff B
    Come on and let me out

Riff B
    Yeah, come on and let me out

Riff B
    Yeah, tie a soul to you when your light goes down

Riff A
    Time flies when you're falling down

Riff A
    I spread my rot all over this town

Riff A
    And every one of you looks the same

Riff A
    And every one of you feels the same
Tap to rate this tab
 
# A B C D E F G H I J K L M N O P Q R S T U V W X Y Z