Song name
# A B C D E F G H I J K L M N O P Q R S T U V W X Y Z

Hole - Plump tab

-------------------------------------------------------------------------------
			     Plump by Hole
-------------------------------------------------------------------------------

Rock onnnnn. So I think that the last tab on here is 99% correct, it's just missing one 
wee-little chord, so I'm going to add that in and build onto what's already been said, 
but I think this one is in the bag.

Tabbed by: Scott H.

Tuning: Standard


Riff A (Intro/Verse):

e|---------------------------------------|
B|---------------------------------------|
G|---------------------------------------|
D|-44-2222-44-2222-44-2222-77-22---------|
A|-44-2222-44-2222-44-2222-77-22---------|
E|-22-0000-22-0000-22-0000-55-00---------|


Riff A x 2


Riff A
    He shakes his dead rattle

Riff A
    Spittle on his bib

Riff A
    And I don't do the dishes

Riff A
    I throw them in the crib


Riff B (Chorus):

e|----------------|
B|----------------|
G|--99--777-------|
D|--99--777-------|
A|--77--555-------|
E|----------------|


Riff B x 1


Riff B
    I'm eating you

Riff B
    I'm overfed

Riff B
    Your milk's in my mouth

Riff B
    It makes me sick

Riff A x 1

Riff A
    And I've stumbled here

Riff A
    Failed to make it mine

Riff A
    They say I'm plump

Riff A
    But I threw up all the time

Riff B
    I'm eating you

Riff B
    I'm overfed

Riff B
    Your milk's in my mouth

Riff B
    It makes me sick


Riff C (Verse II):

e|------------------------------|
B|------------------------------|
G|------------------------------|
D|-44-2222-44-2222-7777---------|
A|-44-2222-44-2222-7777---------|
E|-22-0000-22-0000-5555---------|


Riff C x 1


Riff D (Bridge):

e|---------------------|
B|---------------------|
G|---------------------|
D|---------------------|
A|--2222222------------|
E|--------333333232----|

Riff D x 2


Riff D
    Do you fake it for me like I...

Riff D
    Do you fake it for me like I...

Riff D
    Do you fake it for me like I...

Riff A x 2

Riff A
    My baby's in her arms

Riff A
    Crawlin' up her legs

Riff A
    Like a liar at a witch trial

Riff A
    You look good for your age

Riff B
    I'm eating you

Riff B
    I'm overfed

Riff B
    Your milk's in my mouth

Riff B
    It makes me sick


Riff E (Outro):
**exactly the same as Riff C, just one more hit on the A power chord at the end

e|------------------------------|
B|------------------------------|
G|------------------------------|
D|-44-2222-44-2222-77777--------|
A|-44-2222-44-2222-77777--------|
E|-22-0000-22-0000-55555--------|
Tap to rate this tab
# A B C D E F G H I J K L M N O P Q R S T U V W X Y Z