Song name
# A B C D E F G H I J K L M N O P Q R S T U V W X Y Z

Hole - Hungry Like The Wolf tab

-------------------------------------------------------------------------------
			     Hungry Like The Wolf by Hole
-------------------------------------------------------------------------------

Great cover of the Duran Duran classic, made up entirely of power chords (sans an open
E). Based this off of the MTV Unplugged performance from 1995. The band never performed
the song in its entirety, it cuts off after the first chorus and ends with some random 
experimental playing. The other tab on here is confusing, so this is a simplified
interpretation to clear up some stuff.

Tabbed by: Scott H.

"p" = pull off

Tuning: Standard


Intro/Main:

e|----------------------------------------|
B|----------------------------------------|
G|--1-1-1-1--1---2-1----2-p-1-------------|
D|--2-2-2-2--2-------2---------2----------|
A|--2-2-2-2--2----------------------------|
E|--0-0-0-0--0----------------------------|


     Down in the city night is alive
     And in the subway urban survive



Pre-Chorus:

e|-----------------------------------------|
B|-----------------------------------------|
G|--7-7-7-7--7-------2-1----2-p-1----------|
D|--7-7-7-7--7-----------2---------2-------|
A|--5-5-5-5--5-----------------------------|
E|-----------------------------------------|

    Do-do-do-do, do-do-do, do-do-do
    Do-do-do-do-do-do



Intro/Main Riff
    Woman, you want me, give me a sign
    You check my breed, I'm just a moment behind


Pre-Chorus Riff
    Do-do-do-do, do-do-do, do-do-do
    Do-do-do-do-do-do


Chorus 1:

e|----------------------------------------|
B|----------------------------------------|
G|--5-5-5-5-5-----------------------------|
D|--5-5-5-5-5--5-5-5-5-5--3-3-3-3-3-------|
A|--3-3-3-3-3--5-5-5-5-5--3-3-3-3-3-------|
E|--0-0-0-0-0--3-3-3-3-3--1-1-1-1-1-------|


    In touch with the ground
    I'm on the hunt, I'm after you


Chorus 2:

e|------------------------------------------|
B|------------------------------------------|
G|--5-5-5-5-5-------------------------------|
D|--5-5-5-5-5--5-5-5-5-5--3-3-3-3-3--7-7-7--|
A|--3-3-3-3-3--5-5-5-5-5--3-3-3-3-3--7-7-7--|
E|--0-0-0-0-0--3-3-3-3-3--1-1-1-1-1--5-5-5--|


    A smell like a sound
    I'm lost and I'm found
    And I'm hungry like the wolf


Chorus 1
    Night is alive, earth is afire
    Yeah, I'm on the hunt, I'm after you

Chorus 2
    A smell like a sound
    I'm lost and I'm found
    And I'm hungry like the wolf
Tap to rate this tab
# A B C D E F G H I J K L M N O P Q R S T U V W X Y Z