Song name
# A B C D E F G H I J K L M N O P Q R S T U V W X Y Z

Hole - Turpentine tab

-------------------------------------------------------------------------------
			     Turpentine by Hole
-------------------------------------------------------------------------------

First song ever recorded by Hole in 1990. Released in 1997 on the band's second 
EP, 'The First Session'.

Tabbed by: Scott H.

"x" = string mute
"/" = slide up
"\" = slide down

Tuning: Drop D (Standard works also)


INTRO/VERSE:

e|------------------------------------------|
B|------------------------------------------|
G|------------7-x-7-x-7-x-7-7-7\55----------|
D|-7-7-7\555--7-x-7-x-7-x-7-7-7\55----------|
A|-7-7-7\555--5-x-5-x-5-x-5-5-5\33----------|
E|-5-5-5\333--------------------------------|

     Devil come down, can't look you in the eye
     Where you gonna go with no place to die?
     My water breaks like turpentine
     While I sit like a pretty sacrifice


CHORUS:

e|------------------------------------------|
B|------------------------------------------|
G|-7777/9--7777/9--7777/9-------------------|
D|-7777/9--7777/9--7777/9--9999/10----------|
A|-5555/7--5555/9--5555/7--9999/10----------|
E|-------------------------7777/-8----------|

    Now you getta watch, you getta watch
    Now you getta watch me die
    Bless my body and bless my soul
    Wrap in turpentine 


INTERLUDE:

e|----------------------|
B|----------------------|
G|-999------------------|
D|-999-10-10\7----------|
A|-777-10-10\7----------|
E|------8--8\5----------|

    I see you standin'
    Whatever for?
    All abandoned like an old whore


VERSE:
     Who really knows where the rubies rise?
     I see all those sick reflections in your ruby eyes
     And I know all you devils by your Christian names
     And I know all you bitches by your Christian names

CHORUS:
     Now I getta watch, I getta watch
     Now I getta watch you die
     Bless my body and bless my soul
     Wrap it in turpentine


BRIDGE:

e|----------------------|
B|----------------------|
G|--44444/66/777--------|
D|--44444/66/777--------|
A|--22222/44/555--------|
E|--00000/00/000--------|

    Acrid syphilic coteries
    Put your head up over your legs
    Count backwards from infinity
    I said, oh, oh, whoa


VERSE:
    I eat the rose and the dirt it grows in
    You don't even know what hole that's supposed to go in
    And now you're mad and you're snubbing me
    It stinks up here in the junkie tree

CHORUS:
     Now you getta watch, you getta watch
     Now you getta watch me die
     Bless my body and bless my soul
     Wrap in turpentine 

BRIDGE:
     Acrid syphilic coteries
     Put your legs up over your head
     I better walk into your suicide
     So you can feel them hold him down to his side
     I cease to exist on the Christmas list
     I cease to exist in the old disease
     I lie right down, baby give it to me
     I lie right down

     Nowhere, walking backwards, forward...
     Nowhere, walking backwards, forward...
     Nowhere, walking backwards, forward...
     Nowhere, walking backwards, forward...
     Nowhere, backwards, forwards...
Tap to rate this tab
# A B C D E F G H I J K L M N O P Q R S T U V W X Y Z