Song name
# A B C D E F G H I J K L M N O P Q R S T U V W X Y Z

Hole - The Void chords

Highlighted       Show chord diagrams
-------------------------------------------------------------------------------
                             The Void by Hole
-------------------------------------------------------------------------------

Tabbed by: Scott

From their 1994 "Doll Parts" single, covering The Raincoats.


Tuning: Standard


Intro:
e|----------------------------------------------------------------------------------------|
B|-12-12-12-12-12--8/10-10-10-10-10--12-12-12-12-12--8/10-10-10-10-10--12-12-12-12-14-14--|
G|-12-12-12-12-12--9/11-11-11-11-11--12-12-12-12-12--9/11-11-11-11-11--12-12-12-12-14-14--|
D|--0--0--0--0--0--0--0--0--0--0--0---0--0--0--0--0--0--0--0--0--0--0---0--0--0--0--0--0--|
A|----------------------------------------------------------------------------------------|
E|----------------------------------------------------------------------------------------|


D      A
When I looked at the street

              D           A            
You know, and when it was talking to me
 
D      A
When I looked at the street

              D           A
You know, and when it was talking to me



D5
The void

A5
(When I fill the void)

D5
The void

A5
(When I fill the void)

D5
The void

A5
(When I fill the void)



D               A
I see into your revolution

         D
What's a revolution?

A
Can we please wake up now?

D5
One, two, three

A5
(Three, two one)

D5
One, two three

A5
(Three, two one...)



D
And when, yeah, when, yeah


A (bend strings)



Bridge (x 4):
e|--------------------------------------|
B|-----8/10-10-10-10--12-12-12-12-------|
G|-----9/11-11-11-11--12-12-12-12-------|
D|-----0/-0--0--0--0---0--0--0--0-------|
A|--------------------------------------|
E|--------------------------------------|


Solo (x 2):
e|--------------------------------------------------|
B|------8-7-8-7-----------------8-7-8-7-------------|
G|--7-9---------7-6-7-6-7---7-9---------6-7b-7------|
D|--------------------------------------------------|
A|--------------------------------------------------|
E|--------------------------------------------------|


D      A
When I looked at the void

              D           A   
You know, and when it was talking to me

D      A
When I looked at the void

              D           A
You know, and when it was talking to me



D5
The void

A5
(When I fill the void)

D5
The void

A5
(When I fill the void)

D5
The void

A5
(When I fill the void)

D5         A5
The void
Tap to rate this tab
# A B C D E F G H I J K L M N O P Q R S T U V W X Y Z