Song name
# A B C D E F G H I J K L M N O P Q R S T U V W X Y Z

Hole - Doll Parts tab

-------------------------------------------------------------------------------
                             Doll Parts by Hole
-------------------------------------------------------------------------------

Simple song, but I've tabbed out both Courtney's and Eric's partsó not terribly 
different, but they are definitely noticeable and affect how the song sounds.

Tabbed by: Scott

Tuning: EADGBE


Verse

Guitar 1 (Courtney):

       A5    Cmaj7    G6     Cmaj7

e|--------------------------------------------------|
B|--------------------------------------------------|
G|---2--222--0--000--0--000--0--000-----------------|
D|---2--222--2--222--0--000--2--222-----------------|
A|---0--000--3--333--2--222--3--333-----------------|
E|-------------------3--333-------------------------|


Guitar 2 (Eric):

      A5      C6      G6      C6

e|--------------------------------------------------|
B|-----------0--000----------0--000-----------------|
G|---2--222--2--222--0--000--2--222-----------------|
D|---2--222--2--222--0--000--2--222-----------------|
A|---0--000--3--333--2--222--3--333-----------------|
E|-------------------3--333-------------------------|


     I am
     Doll eyes
     Doll mouth
     Doll legs
        
     I am
     Doll arms
     Big veins
     Dog beg

     Yeah, they really want you
     They really want you
     They really do

     Yeah, they really want you
     They really want you
     But I do too


Pre-Chorus/Chorus

Guitar 1 (Courtney):

      A5   Cmaj7  G6
    
e|----------------------------------------------|
B|----------------------------------------------|
G|---2--22--0--0---0000000----------------------|
D|---2--22--2--0---0000000----------------------|
A|---0--00--3--2---2222222----------------------|
E|-------------3---3333333----------------------|


Guitar 2 (Eric):
  
      A5    C6    G6
   
e|----------------------------------------------|
B|----------0-----------------------------------|
G|---2--22--2--0---0000000----------------------|
D|---2--22--2--0---0000000----------------------|
A|---0--00--3--2---2222222----------------------|
E|-------------3---3333333----------------------|


     I want to be the girl with the most cake
     I love him so much it just turns to hate
     I fake it so real I am beyond fake
     And someday you will ache like I ache
     And someday you will ache like I ache
     And someday you will ache like I ache      
     And someday you will ache like I ache
     Someday you will ache like I ache


[Return to Verse]

     I am
     Doll parts
     Bad skin
     Doll heart
     It stands
     For knife
     For the rest
     Of my life

     Yeah, they really want you
     They really want you
     They really do

     Yeah, they really want you
     They really want you
     But I do too

[Pre-Chorus/Chorus]

     I want to be the girl with the most cake
     He only loves those things because
     He loves to see them break
     I fake it so real I am beyond fake
     And someday you will ache like I ache
     And someday you will ache like I ache
     Someday you will ache like I ache

     And someday you will ache like I ache
     And someday you will ache like I ache
     And someday you will ache like I ache
     And someday you will ache like I ache
     Someday you will ache like I ache
Tap to rate this tab
# A B C D E F G H I J K L M N O P Q R S T U V W X Y Z