Song name
# A B C D E F G H I J K L M N O P Q R S T U V W X Y Z

Hole - Rock Star tab

-------------------------------------------------------------------------------
                             Rock Star (original version) by Hole
-------------------------------------------------------------------------------
Tabbed by: Scott H

Tuning: Standard

Note: "h" = hammer-on


Intro/Verse Riff

e|--2-2-2-2-2h3-2-0-------------3-3-3-3------------|
B|--3-3-3-3-3---3-0--3-3-3-3-3--0-0-0-0------------|
G|--2-2-2-2-2---2-2--0-0-0-0-0--0-0-0-0------------|
D|--0-0-0-0-0---0-0--2-2-2-2-2--0-0-0-0------------|
A|-------------------3-3-3-3-3--2-2-2-2------------|
E|------------------------------3-3-3-3------------|


Power Chords:

e|-----------------------------------------|
B|-----------------------------------------|
G|--7-7-7-7-7-7-7--5-5-5-5-----------------|
D|--7-7-7-7-7-7-7--5-5-5-5--5-5-5-5-5------|
A|--5-5-5-5-5-5-5--3-3-3-3--5-5-5-5-5------|
E|--------------------------3-3-3-3-3------|


Verse Riff (electro acoustic guitar)

    How'd you like to be a rock star?
    Wouldn't it be fun to be a rock star?
    I know you wanna kill the rock stars
    Yeah, you'd rather die
    Oh, I think you'd like to try
    Oh, I think you'd like to try

    How'd you like to be Madonna?
    So much fun to be Madonna
    Oh, how'd you like to be Madonna?
    You say you'd rather die? 
    Oh, what a lie
    Oh, I think you'd like to try, yeah, yeah


(Electro acoustic, plus distorted power chords)

    How'd you like to be Nirvana?
    So much fun to be Nirvana
    A barrel of laughs to be Nirvana
    Say you'd rather die
    Oh, yeah, to try
    Oh, to try


Bridge (arpeggiated chords):

    A      C          G
    We are not who we fuck

    A          C        G
    It is your own ugly luck

    A          C        G
    You are an aberration

    A             C            G
    Get out of my life, you're poison


(Resume verse riff)

    How'd you like to move into my house?
    Throw my baby and furniture out?
    How'd you like credit for this song?
    Well, I'd rather die
    Oh, yeah, well I'd rather die
    Oh, yeah, well I'd rather die
    Oh, yeah, well I'd rather die
Tap to rate this tab
# A B C D E F G H I J K L M N O P Q R S T U V W X Y Z