Song name
# A B C D E F G H I J K L M N O P Q R S T U V W X Y Z

Hole - Mrs Jones tab

Hole - Mrs. Jones (Pretty On The Inside)


Standard Tuning



************** INTRO *****************************



e ---------------------------|
B ---------------------------|
G ---------------------------|
D -2--5--2--5-5--------------| x2
A -2--5--2--5-5--------------|
E -0--3--0--3-3--------------|


e ---------------------------|
B ---------------------------|
G ---------------------------|
D -7----6----5----4----------| x2
A -7-x8-6-x8-5-x8-4-x8-------|
E -5----4----3----2----------|



************** VERSE *****************************



e ---------------------------|
B ---------------------------|
G ---------------------------|
D -7----6----5----4----------|
A -7-x8-6-x8-5-x8-4-x8-------|
E -5----4----3----2----------|


e ---------------------------|
B ---------------------------|
G -----------5---------------|
D -7----6----5-x8-4----------|
A -7-x8-6-x8-3----4-x8-------|
E -5----4---------2----------|


e ---------------------------|
B ---------------------------|
G -----------5----6----------|
D -7----9----5-x8-6-x8-------|
A -7-x8-9-x8-3----4----------|
E -5----7--------------------|



************** CHORUS ****************************



e ---------------------------|
B ---------------------------|
G -4-------------------------|
D -4-x13-2-3-2---------------| x3
A -2-----2-3-2---------------|
E -------0-1-0---------------|



************** VERSE *****************************



e ---------------------------|
B ---------------------------|
G ---------------------------|
D -7----6----5----4----------| x2
A -7-x8-6-x8-5-x8-4-x8-------|
E -5----4----3----2----------|


e ---------------------------|
B ---------------------------|
G -----------5----6----------|
D -7----6----5-x8-6-x8-------|
A -7-x8-6-x8-3----4----------|
E -5----4--------------------|


e ---------------------------|
B ---------------------------|
G -----------5----6----------|
D -7----9----5-x8-6-x8-------|
A -7-x8-9-x8-3----4----------|
E -5----7--------------------|



************** CHORUS ****************************



e ---------------------------|
B ---------------------------|
G -4-------------------------|
D -4-x13-2-3-2---------------| x3
A -2-----2-3-2---------------|
E -------0-1-0---------------|



************** BRIDGE ****************************

(listen to the song for rhythm)

e -----0--------0--------0--------0----|
B -----0-x4-----0-x4-----0-x4-----0-x4-|
G -----0--------0--------0--------0----|
D -9--9-----7--7-----4--4-----5--------| x3
A -9--9-----7--7-----4--4-----5--------|
E -7--7-----5--5-----2--2-----3--------|


e -----0--------0--------0-----------------------|
B -----0-x4-----0-x4-----0-x4--------------------|
G -----0--------0--------0-----------------------|
D -9--9-----7--7-----4--4-----0---0---0---0---0~-|
A -9--9-----7--7-----4--4-----0---0---0---0---0~-|
E -7--7-----5--5-----2--2-----0---0---0---0---0~-|



************** VERSE *****************************



e ---------------------------|
B ---------------------------|
G ---------------------------|
D -7----6----5----4----------| x2
A -7-x8-6-x8-5-x8-4-x8-------|
E -5----4----3----2----------|


e ---------------------------|
B ---------------------------|
G -----------5---------------|
D -7----6----5-x8-4----------|
A -7-x8-6-x8-3----4-x8-------|
E -5----4---------2----------|


e ---------------------------|
B ---------------------------|
G -----------5----6----------|
D -7----6----5-x8-6-x8-------|
A -7-x8-6-x8-3----4----------|
E -5----4--------------------|



************** CHORUS  ***************************



e ---------------------------|
B ---------------------------|
G -4-------------------------|
D -4-x13-2-3-2---------------| x6
A -2-----2-3-2---------------|
E -------0-1-0---------------|



************** ENDING ****************************



e ---------------------------|
B ---------------------------|
G ---------------------------|
D -2--5--2--5-5--------------| x28
A -2--5--2--5-5--------------|
E -0--3--0--3-3--------------|


end on

e ---
B ---
G ---
D -2~
A -2~
E -0~
Tap to rate this tab
# A B C D E F G H I J K L M N O P Q R S T U V W X Y Z