Song name
# A B C D E F G H I J K L M N O P Q R S T U V W X Y Z

Hole - Skinny Little Bitch tab

Hole - Skinny Little Bitch (Nobody's Daughter Album)


Standard Tuning




MAIN RIFF

e- ----------------------------------------------------|
B- ----------------------------------------------------|
G- -------------------2--------------------------------|
D- -4--4--2-4--4--2-4-2-x4-----------------------------|
A- -4--4--2-4--4--2-4-0--------------------------------|
E- -2--2--0-2--2--0-2----------------------------------|



CHORUS

e- ----------------------------------------------------|
B- ----------------------------------------------------|
G- ---------------4--4---------------------------------|
D- -4--4-4-2--2-2-4--4-2-4--4-4------------------------| x3
A- -4--4-4-2--2-2-2--2-2-4--4-4------------------------|
E- -2--2-2-0--0-0------0-2--2-2------------------------|

e- ------------------------------------------------------|
B- ------------------------------------------------------|
G- ------------------------------------------------------|
D- -2----------------------------------------------------|
A- -2-x16------------------------------------------------|
E- -0----------------------------------------------------|



VERSE (bass part, listen to the song for rythm)

e- ----------------------------------------------------|
B- ----------------------------------------------------|
G- -5~~~------------5~~~-------2-----------------------|
D- ----------------------------2-x4--------------------|
A- ----------------------------0-----------------------|
E- ----------------------------------------------------|




SOLO

 Rhythm Guitar

e- ----------------------------------------------------|
B- ----------------------------------------------------|
G- -4-----4/6-6-----4-----4/6-6----9-------------------|
D- -4-x16-4/6-6-x16-4-x16-4/6-6-x8-9-x8----------------|
A- -2-----2/4-4-----2-----2/4-4----7-------------------|
E- ----------------------------------------------------|

 Lead Guitar

e- -------------------------------------------------------------------------|
B- --------------------  14141414--------------------14^17-14^17-14~~-------|
G- -11-x16-11/13--13-x12-13131313--11-X16-11/13-13-X8-----------------------|
D- -------------------------------------------------------------------------|
A- -------------------------------------------------------------------------|
E- -------------------------------------------------------------------------|




ENDING

 Rhythm Guitar

just play MAIN RIFF, but keep getting faster


 Lead Guitar (at some point)

e- ----------------------------------------------------|
B- -14----12~~-14--------------------------------------|
G- -13-x?-10~~-13-x?-----------------------------------|
D- ----------------------------------------------------|
A- ----------------------------------------------------|
E- ----------------------------------------------------|


END

 Rhythm Guitar

e- ----------------------------------------------------|
B- ----------------------------------------------------|
G- ----------------------------------------------------|
D- -4-------4------------------------------------------|
A- -4(hold)-4------------------------------------------|
E- -2-------2------------------------------------------|

 Lead Guitar

e- ----------------------------------------------------|
B- -12^------------------------------------------------|
G- -10^-----4------------------------------------------|
D- ---------4------------------------------------------|
A- ---------2------------------------------------------|
E- ----------------------------------------------------|
Tap to rate this tab
 
# A B C D E F G H I J K L M N O P Q R S T U V W X Y Z