Song name
# A B C D E F G H I J K L M N O P Q R S T U V W X Y Z

Hole - Nobodys Daughter tab

Hole - Nobody's Daughter (Nobody's Daughter Album)

Standard Tuning

Chords used

  -0-    -0-   -0-    -0-   -0-   -2-   -3-   -2-    -2-
  -0-    -0-   -2-    -1-   -1-   -3-   -0-   -4-    -3-
  -1-    -0-   -2-    -2-   -0-   -2-   -0-   -4-    -4-
E -2- Em -2- A -2- Am -2- C -2- D -0- G -0- B -4- Bm -4-
  -2-    -2-   -0-    -0-   -3-   ---   -2-   -2-    -2-
  -0-    -0-   ---    ---   ---   ---   -3-   -2-    -2-

*******************INTRO*************************************


Guitar 1

e- 7--7--7--7--5---5--5--5----------------------------|
B- -5--5--5--5---5--------5-7-5-7--7--7-8-7-5-3--3--3-|
G- ---------------------------------------------------|
D- ---------------------------------------------------|
A- ---------------------------------------------------|
E- ---------------------------------------------------|

e- 7--7--7--7--5---5--5--5--10(hold)-----------------|
B- -5--5--5--5---5-----------------------------------|
G- --------------------------------------------------|
D- --------------------------------------------------|
A- --------------------------------------------------|
E- --------------------------------------------------|

Guitar 2

e- --------------------------------------------------|
B- --------------------------------------------------|
G- -------5-----7-----2------------------------------|
D- -2-----5-x4--7-x4--2-x4---------------------------|
A- -2-x4--3-----5-----0------------------------------|
E- -0------------------------------------------------|

e- --------------------------------------------------|
B- --------------------------------------------------|
G- -------5-----7------------------------------------|
D- -2-----5-x4--7-(hold)-----------------------------|
A- -2-x4--3-----5------------------------------------|
E- -0------------------------------------------------|


Guitar 3

 Em C D A
 Em c D (hold)




*****************VERSE******************************************

Guitar 3


 Chords E  C D A
        Em C D A  (variate between these)


Guitar 1


   and no one here...

e- 7--7--7--7--5---5--5--5------------------------------|
B- -5--5--5--5---5--------5-7-5-7--7--7-8-7-5-3--3--3---|
G- -----------------------------------------------------|  x2
D- -----------------------------------------------------|
A- -----------------------------------------------------|
E- -----------------------------------------------------|

************CHORUS***********************************************


Guitar 1

e- ---------------2-3----3----------------0---0------|
B- ---------1-------------3----2-----3-----3---3-----|
G- ---1------0---2--------------2-----2--------------|
D- ----2---2----0-------------2----------------------|
A- --2----3-------------2----0------0--------2-------|
E- -0------------------3-----------2-----3--3----3---|

e- ---------3-----2-3----3---------------0-----------|
B- ----------3------------3----2-----3---3-----------|
G- ---1----------2--------------2-----2--0-----------|
D- ----2--------0-------------2----------0-x16-------|
A- --2-----2------------2----0------0----2-----------|
E- -0-----3------------3-----------2-----3-----------|


Guitar 2

e- --------------------------------------------------|
B- --------------------------------------------------|
G- -5---------7--------------------------------------|
D- -5-x4-5----7-x4-7---------------------------------| x3
A- -3----5-x4-5----7-x4------------------------------|
E- ------3---------5---------------------------------|

e- --------------------------------------------------|
B- --------------------------------------------------|
G- -5---------4--------------------------------------|
D- -5-x4-5----4-x16----------------------------------|
A- -3----5-x4-2--------------------------------------|
E- ------3-------------------------------------------|


Guitar 3

 Chords C G D A

        B (x16) before POST CHORUS



*******************POST CHORUS************************************

Guitar 1

e- --0-                                     e---|
B- -3--                                     B-3-|
G- ----  Play this until VERSE, finish with G---|
D- ----                                     D---|
A- ----                                     A---|
E- ----                                     E---|

Guitar 2
e- --------------------------------------------------|
B- --------------------------------------------------|
G- -----------5----2---------------5----7------------|
D- -2----5----5-x4-2-x4--2----5----5-x4-7-x4---------|
A- -2-x4-5-x4-3----0-----2-x4-5-x4-3----5------------|
E- -0----3---------------0----3----------------------|

e- --------------------------------------------------|
B- --------------------------------------------------|
G- -----------5----2--------------5------------------|
D- -2----5----5-x4-2-x4-2----5----5(hold)------------|
A- -2-x4-5-x4-3----0----2-x4-5-x4-3------------------|
E- -0----3--------------0----3-----------------------|

Guitar 3

 Chords Em G C A , Em G C D


 hold C before VERSE 2


***************VERSE 2*******************************************

Guitar 3

 Chords E  C D A
        Em C D A  (variate between these)


Guitar 1

  "you don't understand how damaged..."

e- 7--7--7--7--5---5--5--5------------------------------|
B- -5--5--5--5---5--------5-7-5-7--7--7-8-7-5-3--3--3---|
G- -----------------------------------------------------|  x3
D- -----------------------------------------------------|
A- -----------------------------------------------------|
E- -----------------------------------------------------|


******************CHORUS 2********************************************


Guitar 1

e- ---------------2-3----3----------------0---0------|
B- ---------1-------------3----2-----3-----3---3-----|
G- ---1------0---2--------------2-----2--------------|
D- ----2---2----0-------------2----------------------|
A- --2----3-------------2----0------0--------2-------|
E- -0------------------3-----------2-----3--3----3---|

e- ---------3-----2-3----3---------------0-----------|
B- ----------3------------3----2-----3---3-----------|
G- ---1----------2--------------2-----2--0-----------|
D- ----2--------0-------------2----------0-x16-------|
A- --2-----2------------2----0------0----2-----------|
E- -0-----3------------3-----------2-----3-----------|


Guitar 2

e- --------------------------------------------------|
B- --------------------------------------------------|
G- -5---------7--------------------------------------|
D- -5-x4-5----7-x4-7---------------------------------| x3
A- -3----5-x4-5----7-x4------------------------------|
E- ------3---------5---------------------------------|

e- --------------------------------------------------|
B- --------------------------------------------------|
G- -5---------4--------------------------------------|
D- -5-x4-5----4-x16----------------------------------|
A- -3----5-x4-2--------------------------------------|
E- ------3-------------------------------------------|

Guitar 3

 Chords C G D A

        B (x16) before POST CHORUS


***********POST CHORUS 2*******************************************


Guitar 1

e- --0-
B- -3--
G- ----  Play this until BRIDGE 1
D- ----
A- ----
E- ----


Guitar 2

e- --------------------------------------------------|
B- --------------------------------------------------|
G- -----------5----2---------------5----7------------|
D- -2----5----5-x4-2-x4--2----5----5-x4-7-x4---------| x4
A- -2-x4-5-x4-3----0-----2-x4-5-x4-3----5------------|
E- -0----3---------------0----3----------------------|


Guitar 3

 Chords Em G C A , Em G C D


*************BRIDGE 1***********************************

Guitar 1

 couldn't figure it out

Guitar 2

e- --------------------------------------------------|
B- --------------------------------------------------|
G- --------------------------------------------------|
D- -5-7-5-7--2----7----5-----------------------------| x3
A- -5-7-5-7--2-x4-7-x4-5-x4--------------------------|
E- -3-5-3-5--0----5----3-----------------------------|

e- --------------------------------------------------|
B- --------------------------------------------------|
G- ---------------4----------------------------------|
D- -5-7-5-7--2----4-(hold)---------------------------|
A- -5-7-5-7--2-x4-2----------------------------------|
E- -3-5-3-5--0---------------------------------------|

Guitar 3

 Chords Em   D Am

 hold Bm before BRIDGE 2


*****************BRIDGE 2*********************************

 "asphyxiate all your pain away..."



only Guitar 3

 Chords Em G C A, Em G C D




  "translucetize the cold light of day..."



Guitar 1

e- --0-                          e- ---------0-0-2-3-|
B- -3--                          B- -3-3-3-3---------|
G- ----    before ENDING play    G- -----------------|
D- ----                          D- -----------------|
A- ----                          A- -----------------|
E- ----                          E- -----------------|

Guitar 2

e- --------------------------------------------------|
B- --------------------------------------------------|
G- -----------5----2---------------5----7------------|
D- -2----5----5-x4-2-x4--2----5----5-x4-7-x4---------| x4
A- -2-x4-5-x4-3----0-----2-x4-5-x4-3----5------------|
E- -0----3---------------0----3----------------------|


Guitar 3

 Chords Em G C A, Em G C D

 befire ENDING play C(x4) D(x4)


********************ENDING****************************************

e- ---------------2-3----3----------------0---0------|
B- ---------1-------------3----2-----3-----3---3-----|
G- ---1------0---2--------------2-----2--------------|
D- ----2---2----0-------------2----------------------|
A- --2----3-------------2----0------0--------2-------|
E- -0------------------3-----------2-----3--3----3---|

e- ---------3-----2-3----3----------------0---0------|
B- ----------3------------3----2-----3-----3--3------|
G- ---1----------2--------------2-----2-------0------|
D- ----2--------0-------------2---------------0------|
A- --2-----2------------2----0------0----(2)--2------|
E- -0-----3------------3-----------2-----3----3------|
Tap to rate this tab
 
# A B C D E F G H I J K L M N O P Q R S T U V W X Y Z