Song name
# A B C D E F G H I J K L M N O P Q R S T U V W X Y Z

Hole - Miss World tab

I am the girl you know can't look you in the eye
I am the girl you know so sick I can not try
I am the one you want can't look you in the eye
I am the girl you know I lie and lie and lie
   G     D     C   D
e|-3-3-3-2-2-2-----2-2-------------------------------------------------------|
B|-3-3-3-3-3-3-1-1-3-3-------------------------------------------------------|
G|-0-0-0-2-2-2-0-0-2-2-------------------------------------------------------|
D|-0-0-0-------2-2-----------------------------------------------------------|
A|-2-2-2-------3-3-----------------------------------------------------------|
E|-3-3-3---------------------------------------------------------------------|

x4

Intro
I'm miss world
Somebody kill me
Kill me pills
No one cares my friend

I'm miss world
Watch me break
And watch me burn
No one is listening my friend

Yeah


I made my bed I lie in it
I made my bed I die in it
I made my bed I lie in it
I made my bed I die in it

Cute girls watch when I eat ether
Suck me under, maybe forever my friends

Yeah

I made my bed I lie in it
I made my bed I die in it
I made my bed I die in it
I made my bed I cry in it
I made my bed I lie in it
I made my bed I cry in it
I made my bed I die in it
I made my bed I lie in it
My friend

   G
e|-3-3-5-5-7-7-7-7-7-7-7-5-5-3-3-3-3-3----------------------------------------|
B|-3-3-5-5-7-7-7-7-7-7-7-5-5-3-3-3-3-3----------------------------------------|
G|-0-0-0-0-0-0-0-0-0-0-0-0-0-0-0-0-0-0----------------------------------------|
D|-0-0-0-0-0-0-0-0-0-6-6-4-4-2-2-2-2-2----------------------------------------|
A|-2-2-4-4-6-6-6-6-6-7-7-5-5-3-3-3-3-3----------------------------------------|
E|-3-3-5-5-7-7-7-7-7----------------------------------------------------------|

I am the girl you know can't look you in the eye...
   G     D     C   D
e|-3-3-3-2-2-2-----2-2-------------------------------------------------------|
B|-3-3-3-3-3-3-1-1-3-3-------------------------------------------------------|
G|-0-0-0-2-2-2-0-0-2-2-------------------------------------------------------|
D|-0-0-0-------2-2-----------------------------------------------------------|
A|-2-2-2-------3-3-----------------------------------------------------------|
E|-3-3-3---------------------------------------------------------------------|
Tap to rate this tab
 
# A B C D E F G H I J K L M N O P Q R S T U V W X Y Z