Song name
# A B C D E F G H I J K L M N O P Q R S T U V W X Y Z

Hole - Reasons To Be Beautiful tab

  MAIN RIFF
e- ------------------------|-3--6-1--------------------------|
B- ------------------------|-3--8-3--------------------------|
G- ------------------------|-4--8-3--------------------------|
D- ----8-------------------|-5--8-3--------------------------|
A- -5--6-8-----------------|-5--6-1--------------------------|
E- -3----6-----------------|-3-------------------------------|


 CHORUS
e- ----------------------------------------------------------|
B- ----------------------------------------------------------|
G- ----------------------------------------------------------|
D- ------6-x4---------------6-x4---------------6-x4----------|
A- -3-x8-4---6-x4-8-x8-3-x8-4---6-x4-8-x4-3-x4-4---6-x4-8-x8-|
E- -1--------4----6----1--------4----6----1--------4----6----|


 BRIDGE
e- ----------------------------------------------------------|
B- ----------------------------------------------------------|
G- ----------------------------------------------------------|
D- -5-x4---------------5-x4----------------------------------| x2
A- -3---6-x4-8-x4-3-x4-3---6-x4-8-x3-xx-6-xx-8-xx------------|
E- -----4----6----1--------4----6----xx-4-xx-6-xx------------|

 LAST CHORUS
e- ---------------------------------------------------------------------------------------------|
B- ---------------------------------------------------------------------------------------------|
G- ---------------------------------------------------------------------------------------------|
D- -----------6-x4---------------6-x4---------------6-x4---------------6-x2-xxxx----------------|
A- -8-x8-3-x8-4---6-x4-8-x4-3-x4-4---6-x4-8-x8-3-x8-4---6-x4-8-x4-3-x4-4----xxxx-6-x2-xxxx-8-x8-|
E- -6----1--------4----6----1--------4----6----1--------4----6----1--------------4----xxxx-6----|


 ENDING
e- -3--1--1--6/5--3--1--2--3---------------------------------|
B- -3--3--1--8/7--5--3--4--5---------------------------------|
G- -4--3--2--8/7--5--3--4--5---------------------------------|
D- -5--3--3--8/7--5--3--4--5---------------------------------| x2
A- -5--1--3--6/5--3--1--2--3---------------------------------|
E- -3-----1--------------------------------------------------|

e- --------------------3-------------------------------------|
B- ---3--3--3--3--3----3-------------------------------------|
G- ---0-0---0-0---0-0--0-------------------------------------|
D- --0-----0-----0---0-0-------------------------------------|
A- -1-----2-----3------2-------------------------------------|
E- --------------------3-------------------------------------|
Tap to rate this tab
# A B C D E F G H I J K L M N O P Q R S T U V W X Y Z