Song name
# A B C D E F G H I J K L M N O P Q R S T U V W X Y Z

Hole - Dying Demo tab

Hole - Dying [Demo] (Celebrity Skin Single)



 Verse

e- -2--3-----2-----------------------------------------|
B- -3--3--3--3-----------------------------------------|
G- -4--4--0--2-----------------------------------------|
D- -4--4--0--0-----------------------------------------|
A- (2)(0)-2-(0)----------------------------------------|
E- ------(3)(0)----------------------------------------|


 Chorus

e- -7--5--3---2----------------------------------------|
B- -7--7--3---3--3-------------------------------------|
G- -----------2--4-------------------------------------|
D- ---------2-0--4-------------------------------------| x3
A- --------------2-------------------------------------|
E- ----------------------------------------------------|

e- -7--5--3---2----------------------------------------|
B- -7--7--3---3----------------------------------------|
G- -----------2--2-------------------------------------|
D- ---------2-0--2-------------------------------------|
A- --------------0-------------------------------------|
E- ----------------------------------------------------|


 Bridge

e- ----------------------------------------------------|
B- ----------------------------------------------------|
G- -7--7--5--7-----------------------------------------|
D- -7--7--5--7-----------------------------------------| x4
A- -5--4--3--5-----------------------------------------|
E- -------0--------------------------------------------|


 Last Chorus

e- -7--5--3---2----------------------------------------|
B- -7--7--3---3--3-------------------------------------|
G- -----------2--4-------------------------------------|
D- ---------2-0--4-------------------------------------| x8
A- --------------2-------------------------------------|
E- ----------------------------------------------------|

e- ----------------------------------------------------|
B- -8----7---------------------------------------------|
G- -9----7---------------------------------------------|
D- -9----7---------------------------------------------|
A- -7----5---------------------------------------------|
E- ----------------------------------------------------|
Tap to rate this tab
 
# A B C D E F G H I J K L M N O P Q R S T U V W X Y Z